Cifra Club

Aprenda

Why Do All Girls Think Theyre Fat

Reel Big Fish

Tab de bajo: Principal
Why Do All Girls Think They're Fat?
Keep Your Reciept / Everything Sucks


*This is a real cool song, the intro might be a little off, but 
ya don't really need to play it.*


Tabbed By Jon (*)
Solo Done By Fidget(bassist of halfmoon, *)
------------------------------------------------------------------------

Intro:

G:----------------------------------------------------
D:7/5-5-3---------------------------------------------
A:--------5---0--2---2------------5---0--2------5----- 
E:----------------3----3~~~~~3-------------3-3/5------

Chorus/Pre-Verse ("Hey, Hey, Hey..."):
                         (3x)
G:---------------------------*--------
D:---------------------------*--------
A:-5-5-5-5-0-2---------------*-5------
E:--------------3-3-3-3-3-3-3*---3----

Verse:
G:-------------
D:-------------
A:5--0--2------
E:---------3---

Pre-Chorus:
                                     (2x)
G:---------------------------------------
D:---------------------------------------
A:----------3-3-3-3-3-2-2-2-2-2-2-2-2-2-2
E:3-3-3-3-3------------------------------

G:------------------------------------------------------------------------
D:------------------------------------------------------------------------
A:----------3-3-3-3-3-5-5-5-5-5-----------------------3-3-3-3-3-3--5--5--5
E:3-3-3-3-3---------------------5-5-5-5-5-5-3-3-3-3-3---------------------

Bass Solo:

G:--7---7-9--7----7--9-11--9-11-12-12--11-12-9-11-9-7--9-7-7--7-7--
D:9---9--------9---------------------------------------------------
A:-----------------------------------------------------------------
E:-----------------------------------------------------------------

G:----5------5-7--9--7-7-9-9--12--11--11-9-9--7-7-7--5-----
D:5-7----5-7-------------------------------------------7-5-
A:---------------------------------------------------------
E:---------------------------------------------------------

Guitar Solo Part:

G:------------
D:------------
A:-5---5------
E:-------2---3

-------------------
Tabbed By Jon (*)
Solo Done By Fidget(bassist of halfmoon, *)

Compositor Aaron Barrett / Reel Big Fish
12 reproducciones

0 comentarios

Mostrar mais comentários

¿Conseguiste tocar?

0 Tocaron 0 Ainda não

Grave um vídeo tocando Why Do All Girls Think Theyre Fat e mande pra gente!

00:00 / 00:00
outros vídeos desta música
repetir qualidade Automático
Outros vídeos desta música
00:00 / 00:00
Automático
OK