Sangatsu Kokonoka

Remioremen

tono: F
E|------------------------------------------------------------------------|
A|------------------------------------------------------------------------|
D|------------------------------------------------------------------------|
G|------------------------------------------------------------------------|
B|-----------------3------------------------------------------------------|
e|-1-3-5-5-5-0-0-0---1-6-5-5-----1-3-6-5-5-0-0-0-3-5-3-1-1----------------|

E|------------------------------------------------------------------------|
A|------------------------------------------------------------------------|
D|------------------------------------------------------------------------|
G|------------------------------------------------------------------------|
B|-----------------3------------------------------------------------------|
e|-1-3-5-5-5-0-0-0---1-5-5-5-----1-3-6-5-5-0-0-3-5-3-1-1------------------|

E|------------------------------------------------------------------------|
A|------------------------------------------------------------------------|
D|------------------------------------------------------------------------|
G|------------------------------------------------------------------------|
B|------------------------------------------------------------------------|
e|-1-1-0-1-0-1-3-5-----1-1-1-1-5-1-1----1-1-1-1-3-5-0-0-0-3-5-3-1-1-------|

E|------------------------------------------------------------------------|
A|------------------------------------------------------------------------|
D|------------------------------------------------------------------------|
G|------------------------------------------------------------------------|
B|-----------------3------------------------------------------------------|
e|-1-3-5-5-5-0-0-0---1-6-5-5-----1-3-6-5-5-0-0-0-3-5-3-1-1----------------|

E|------------------------------------------------------------------------|
A|------------------------------------------------------------------------|
D|------------------------------------------------------------------------|
G|------------------------------------------------------------------------|
B|-----------------3------------------------------------------------------|
e|-1-3-5-5-5-0-0-0---1-5-5-5-----1-3-6-5-5-0-0-3-5-3-1-1------------------|

E|------------------------------------------------------------------------|
A|------------------------------------------------------------------------|
D|------------------------------------------------------------------------|
G|------------------------------------------------------------------------|
B|------------------------------------------------------------------------|
e|-1-1-0-1-0-1-3-5-----1-1-1-1-5-1-1----1-1-1-1-3-5-0-0-0-3-5-3-1-1-------|

E|------------------------------------------------------------------------|
A|------------------------------------------------------------------------|
D|------------------------------------------------------------------------|
G|------------------------------------------------------------------------|
B|------------------------------------------------------------------------|
e|-10-10-5-5-3-3-1-1-3-6-5-5-------10-10-5-12-8-8--8-5-8-5-5-5------------|

E|------------------------------------------------------------------------|
A|------------------------------------------------------------------------|
D|------------------------------------------------------------------------|
G|------------------------------------------------------------------------|
B|-----------------3-------------------------------1-3--------------------|
e|-10-8--5-5-3-3-1---1-3-1-1-------1-1-0-1-0-1-3-5-----1-0-0-1------------|

E|------------------------------------------------------------------------|
A|------------------------------------------------------------------------|
D|------------------------------------------------------------------------|
G|------------------------------------------------------------------------|
B|------------------------------------------------------------------------|
e|-10----8-10-8----10-10----10-8--5-----10--8-10-8-10-10----10-8-8--------|

E|------------------------------------------------------------------------|
A|------------------------------------------------------------------------|
D|------------------------------------------------------------------------|
G|------------------------------------------------------------------------|
B|------------------------------3-----------------------------------------|
e|-10---8-10-8--10-8----1-3---1---1-1----5-3-5----------------------------|

Página 1 / 1

Letras y titulo
Acordes y artista

restablecer los ajustes
OK