Cifra Club

We Belong Together

Ritchie Valens

Tablatura: Principal
reproducciones 6.993
Tono: F
Intro:
               F       Dm       Gm        C        F       Dm       Gm        C
e|-0h1-1------------------------------------------------------------------------...
B|-0h1-1-3-1--------------------------------------------------------------------...
G|-----------2------------------------------------------------------------------...
D|-------------3--3-5-3------2-3-5--5-5-2------0-2-3--3-5-3------2-3-5--5-5-2---...
A|----------------------5--5--------------3--3--------------5--5--------------3-...
E|------------------------------------------------------------------------------...
Mantém esse solo até o final do segundo verso.

    Verso 1

            F    Dm
    You`re mine
Gm            C     F      Dm
    and we belong together
Gm            C     F      Dm
    Yes we belong together
Gm        C    F    Dm  Gm  C
    For all eternity


    Verso 2

            F    Dm
    You`re mine
Gm              C       F    Dm
    Your lips belong to me
Gm              C      F       Dm
    Yes they belong to only me
(Aqui o solo muda um pouco para se preparar para o bridge)
e|...-----------------------------------------|
B|...-----------------------------------------|
G|...------------------------0-2-3--3-3-2-0---|
D|...-5--5-5-2------0-2-3--3----------------3-|
A|...----------3--3---------------------------|
E|...-----------------------------------------|
     Gm        C        F        Bb         F   F7
          For all eternity

    Bridge
           Bb      Bbm
    You`re my,  my baby
         F
    and you'll always be
        Bb           Bbm
    I swear by everything I own
           G7                  C  Bb Am Gm
    You'll always,  always be mine

    Verse 3

            F    Dm
    You`re mine
Gm            C     F      Dm
    and we belong together
Gm            C     F      Dm
    Yes we belong together
Gm       C     F
    For all eternity
    Bb
    Etern....
         F
    Eternity
Acordes para:
    Colaboración y revision:
    • Rodolfo Santos
    • Wendell Silva

    0 comentarios

      mostrar más comentarios

      ¿Conseguiste tocar?

      8tocaron1aún no

      ¡Graba un vídeo tocando We Belong Together y envianoslo!

      00:00 / 00:00
      outros vídeos desta música
      repetirqualidadeautomática
      Outro vídeos desta música
        00:00 / 00:00
        automática
        OK