Elesi

Rivermaya

****************************************************
Bass tabs
tabbed by: ac!
****************************************************

VERSE/INTRO
G|--------------------------------------------------|
D|--------------------------------------------------|
A|---------------------555--------------------------|
E|-3333333-555-0000000------------------------------|

CHORUS
G|--------------------------------------------------|
D|--------------------------------------------------|
A|--33333333----------------------------------------|
E|-----------33333333-55555555-33333333-------------|

G|--------------------------------------------------|
D|--------------------------------------------------|
A|--33333333-------------------55555555-------------|
E|-----------33333333-00000000----------------------|

G|--------------------------------------------------|
D|--------------------------------------------------|
A|--33333333----------------------------------------|
E|-----------33333333-55555555-33333333-------------|


G|--------------------------------------------------|
D|--------------------------------------------------|
A|--3-333-33-333------------------------------------|
E|---------------1-111-11-111-----------------------|

Here's the part for the chorus before the adlib
G|--------------------------------------------------|
D|-------------------------7------------------------|
A|--3-333-33-333-------5-7---8----------------------|
E|---------------0-3-5------------------------------|

ADLIB
G|--------------------------------------------------|
D|--------------------------------------------------|
A|--33333333----------------------------------------|
E|-----------33333333-55555555-33333333-------------|

G|--------------------------------------------------|
D|--------------------------------------------------|
A|--33333333----------------------------------------|
E|-----------33333333-0-000-00-000-1-111-11-111111--|

*

dedicated to: monique monasterio!!! family!! Bandm8s!! ralph nodzzz and bri!!!
VVSC sk8 crew!!! Ferdinand sk8 crew and marist sk8 crew!!!
Página 1 / 1

Letras y titulo
Acordes y artista

restablecer los ajustes
OK