Ewan Ko Ba Kung Type Kita

Rivermaya

tono: F#
-------------------------------------------------------|
-------------------------------------------------------|
-------------------------------------------------------|
-------------3--3/4-----------------3--3/4-------------|
----------4----------4-----------4----------4----------|
----2--2------------------2---2------------------------|

-------------------------------------------------------|
-------------------------------------------------------|
-------------------------------------------------------|
-----------3--3/4-------------------3--3/4-------------|
--------4----------4-------------4----------4----------|
--2--2----------------------2--2-----------------------|

-------------------------------------------------------|
-------------------------------------------------------|
-----------3--3/4--------------3--3/4------------------|
--------4----------4--------4----------4---------------|
--2--2----------------2--2-----------------------------|
-------------------------------------------------------|

-------------------------------------------------------|
-------------------------------------------------------|
------------3--3/4---------------3--3/4----------------|
---------4-----------4--------4----------4-------------|
---2--2-----------------2--2---------------------------|
-------------------------------------------------------|

Página 1 / 1

Letras y titulo
Acordes y artista

restablecer los ajustes
OK