Youll Be Safe Here

Rivermaya

bass tab

intro:
--------------------------|
--------------------------|
-5------------------------|
-----3---1-----5---3---1--|

verses:
----------------------------------------|
----------------------------------------|
-5-5-3-5----- 2x then--5-5-3-5----------|
----------5-3------------------5-3-1----|

chorus:
----------------------------------------|
----------------------------------------|
-3--3-3----------5--5-5-----------------|
---------3--3-3----------1--1-1---------|

interlude:
----------------------------------------|
----------------------------------------|
-3--3-3---------------------------------|
---------3--3-3---5-5-6--3333333333333--|
Página 1 / 1

Letras y titulo
Acordes y artista

restablecer los ajustes
OK