Volte Nesse Natal

Roupa Nova

Composição de: David Gates / Ricardo Feghali
tono: E
E|--4-4-4--4-5-7-----|-4-4-4-5/7-5-4-------------------|
B|----------------5-|----------------5-----------------|
G|--------------6---|----------------------------------|
D|------------------|----------------------------------|
A|------------------|----------------------------------|
E|------------------|----------------------------------|

E                   A
Todos estão se abraçando 
E           E7       A
Pois essa noite é Natal 
 F#m
Te chamo outra vez 
   G#m
Não vejo teu rosto 
   F#m                B7
Eu nunca fiquei sem você 

E                       A
Everyone´s sayin´ how are you 
E              E7          A
Knowin´ full well I´m not much 
   F#m
And presents to me 
     G#m
Means you here beside me 
     F#m                      B7
The love I´m so used to the touch 

C#m              A
Mas é díficil lembrar em Dezembro 
   G#m               F#m
Palavras de amor que fazem chorar 

C#m                        A
We´ve tried it apart and I know from my heart 
          G#m                      F#m         B7                    
That it´s not working well...it´s just simply hell 

E                A
Todos estão esperando 
E         E7      A
Pra celebrar o Natal
    F#m
Mas eu vou ficar 
   G#m
Dormindo acordado
    F#m                 B7
Sonhando que vou te abraçar.
SOLO

E|-------------------|----------------------------------------------|
B|--5-5-5-5-----7--9-|--5-5-5-5-----7--9----5--4--4-----------------|
G|-6-6-6-6-----8--9--|-6-6-6-6-----8--9----6--4--4--4-4^6---4-6…----|
D|-------------------|------------------------------------6---------|
A|-------------------|----------------------------------------------|
E|-------------------|----------------------------------------------|

C#m                         A
We,ve tried it apart and I know from my heart 
          G#m                F#m           B7
That it´s not working well...not working well 

E                    A
Venha sentar ao meu lado 
E            E7        A
Fazer meu Natal mais feliz 
     F#m                 G#m
You know that I´ll wait, won´t give up hopin´ 
    F#m
Não vou desistir 
     G#m
The door will stay open 
       F#m
Nesse tempo de paz 
B7                         E
Come home for Christmas to me.
Página 1 / 1

Letras y titulo
Acordes y artista

restablecer los ajustes
OK