Cifra Club

Kiss Of Life

Sade

Tab de bajo: Principal
Tabber:T4-TURBO

it so that isnt * try to to put it in later but for now
i just want it online.

Main:
g:--------------------------------------------------------------------------|
d:-------------4-5h7-4------------------------------------------------------|
a:------5----6------------------4-----------------9-9---9-0------4----------|
e:5--5----5------------7-0-2--2---2--2--2//10-9-7-----7-----2--2---2--2--1-0|

There are a couple little things in between riffs but these are the basic notes

Riff 2:
g:----------------------------------|
d:---------------------------4-5h7\\|
a:-------------------------6--------|
e:5-5--0-2-2--1-0-5-5--0-2----------|

There are a whole bunch of little things he does through the song
But i didn't want to tab them I'll try to update this an put them
in the tab But For now this is the basic riff you play.

--Last update May 6th 2002--
reproducciones 36

0 comentarios

mostrar más comentarios

¿Conseguiste tocar?

0 tocaron 0 aún no

¡Graba un vídeo tocando Kiss Of Life y envianoslo!

00:00 / 00:00
outros vídeos desta música
repetir qualidade Automático
Outros vídeos desta música
00:00 / 00:00
Automático
OK