Wind of Change (solo)

Scorpions

tono: G
E|----------------------------------------
B|------12--12b(13)r12~------12--12b(13)
G|---14-------------------14--------------
D|----------------------------------------
A|----------------------------------------
E|----------------------------------------

E|---------------------------|
B|r12b(13)r12---15b(17)------|
G|---------------------------|
D|---------------------------|
A|---------------------------|
E|---------------------------|

E|----------------------------------------
B|---15b(17)-----12--13--12h13p12---------
G|------------14------------------12--14--
D|----------------------------------------
A|----------------------------------------
E|----------------------------------------

E|--------------------------|
B|--------------------------|
G|-12b(14)--12----12--------|
D|------------14------------|
A|--------------------------|
E|--------------------------|
                                                              
E|----------------------------------------
B|----------------------------------------
G|--12b(14)--12--------12-----------------
D|--------------14--15-----15p14p12--14---
A|----------------------------------------
E|----------------------------------------

E|---------------------------|
B|---------------------------|
G|---------------------------|
D|-14--12\10/12---14---------|
A|---------------------------|
E|---------------------------|

E|--------------------------12------------
B|---12b(13)r12b(13)r12b(13)--(13)r12~----
G|----------------------------------------
D|----------------------------------------
A|----------------------------------------
E|----------------------------------------

E|-15b(17)----13--12h13p12~----|
B|-----------------------------|
G|-----------------------------|
D|-----------------------------|
A|-----------------------------|
E|-----------------------------|

E|----------------------------------------
B|----------------------------------------
G|-------17--16~--16--17--19--19b(21)-----
D|---/19----------------------------------
A|-------------------------------------17-
E|----------------------------------------

E|------------------------|
B|------------------------|
G|------------------------|
D|------------------------|
A|-20--19--17-------------|
E|------------------------|

E|---14b(16)r14b-12--14b-14b(16)----------
B|----------------------------------------
G|----------------------------------------
D|----------------------------------------
A|----------------------------------------
E|----------------------------------------

Página 1 / 1

Letras y titulo
Acordes y artista

restablecer los ajustes
OK