Cifra Club

Yo no quiero volverme tan loco

Serú Girán

Cifrado: Principal (guitarra y guitarra eléctrica)
tono: A
INTRO: Riff1 x2 Riff2 + GUITARRA 2
       Riff1 x2 Riff2


Yo no quiero volverme tan loco        (Riff 1)
yo no quiero vestirme de rojo         (Riff 1)
yo no quiero morir en el mundo hoy.   (Riff 2)
Yo no quiero ya verte tan triste      (Riff 1)
yo no quiero saber lo que hiciste     (Riff 1)
yo no quiero esta pena en mi corazón. (Riff 3)

           D                      A
Escucho el beat de un tambor entre la desolación
      G                      E
y una radio en una calle desierta
          F#m                       G
están las puertas cerradas y las ventanas también
     B7                        E7
no será que nuestra gente está muerta?
             D                   A
Presiento el fin de un amor en la era del color
     G                          E
la televisión está en las vidrieras
         F#m                    G
toda esa gente parada que tiene grasa en la piel
        B7                       E
no se entera ni que el mundo da vueltas


Yo no quiero meterme en problemas     (Riff 1)
yo no quiero asuntos que queman       (Riff 1)
yo tan sólo les digo que es un bajón. (Riff 2)
Yo no quiero sembrar la anarquía      (Riff 1)
yo no quiero vivir como digan         (Riff 1)
tengo algo que darte en mi corazón.   (Riff 3)

           D                   A
Escucho un tango y un rock y presiento que soy yo
     G                          E
y quisiera ver al mundo de fiesta
           F#m                       G
veo tantas chicas castradas y tantos tontos que al fin
      B7                   E7
yo no se si vivir tanto les cuesta.
          D                 A
Yo quiero ver muchos mas delirantes por ahí
   G                          E
bailando en una calle cualquiera
          F#m                       G
En Buenos Aires se ve que ya no hay tiempo de mas
      B7                   E
la alegría no es solo brasilera.

...............................................................
AHORA SUENAN LOS ACORDES CON EL ORGANO Y LOS PUNTEOS AL ULTIMO:
...............................................................

A     E      D            A E
Yo no quiero vivir paranoico
A     E      D              A E
yo no quiero ver chicos con odio              D-22222222---2---2---2-/
yo no quiero sentir esta depresión ------>   E-00000000-3-0-4-0-5-0-/

A      E          D             A E
voy buscando el placer de estar vivo
A      E          D          A E                 FIJARSE QUE
no me importa si soy un bandido                  ESTA EN "A "
voy pateando basura en el callejón --->  D-22222222---2---2---2-/
E|----------------------/|

LOS ACORDES SON: D A G  D A

Yo no quiero volverme tan loco         (Riff 4)
yo no quiero vestirme de rojo          (Riff 4)
yo no quiero morir en el mundo hoy.    (Riff 5)
Yo no quiero ya verte tan triste       (Riff 4)
yo no quiero saber lo que hiciste      (Riff 4)
yo no quiero esta pena en mi corazón.  (Riff 5)
Yo no quiero esta pena en mi corazón.  (Riff 5)

TERE NA EN "D"

...............................................................
...............................................................

GUITARRA 1:

Riff1:
D|-------2----------4b-4b-4-2---/|
A|-0-0-4---------2------------4-/|
E|---------0-0-4----------------/|

Riff2:
G|------------------222-222----------------------/|
D|-------2----------222-000-22222222---2---2---2-/|
A|-0-0-4---------2--000-000-22222222---2---2---2-/|
E|---------0-0-4------------00000000-3-0-4-0-5-0-/|

Riff3:
G|------------------222-222-11111111-------------/|
D|-------2----------222-000-22222222-------------/|
A|-0-0-4---------2--000-000-22222222-------------/|
E|---------0-0-4------------00000000-------------/|

ESTOS SON IGUALES PERO MAS AGUC S:

Riff4:
G|-------2----------4b-4b-4-2---/|
D|-0-0-4---------2------------4-/|
A|---------0-0-4----------------/|

Riff5:
B|------------------333333...-/|
G|-------2----------222222...-/|
D|-0-0-4---------2--000000...-/|
A|---------0-0-4--------------/|


GUITARRA 2:

E|------------------15----------------------/|
B|-12b-12b-11----11-----12b-12b-11----11h12-/|
G|------------12-------------------12-------/|
D|------------------------------------------/|
00:00 / 00:00
Otros videos de esta canción
Repetir
Otros videos de esta canción
Composición de Charly Garcìa
50 vistas
    • ½ Tono
    • A
    • Bb
    • B
    • C
    • Db
    • D
    • Eb
    • E
    • F
    • F#
    • G
    • Ab
  • Agregar a la lista

    0 comentarios

    Ver todos los comentarios

    ¿Lograste tocar?

    0 Tocaron 0 Aún no

    ¡Graba un video tocando Yo no quiero volverme tan loco y envíanoslo!

    00:00 / 00:00
    OK