Cifra Club

Aprenda

Sponge Bob Theme

Bob Esponja (Spongebob Squarepants)

Tablatura: Principal (guitarra)
tono: E
E|---7--6-7--9-7----7--6-7--9-7---7----11---12h14-----|
A|------------------------------------------------12x-|
D|----------------------------------------------------|
G|----------------------------------------------------|
B|----------------------------------------------------|
E|----------------------------------------------------|

(baixo)
G|------------------------------------------------|
D|------------------------------------------------|
B|------------------------------------------------|
E|---7--6-7--9-7----7--6-7--9-7---7----11---12____|

E|------------------------------------------------|
A|----9-9--------9-9------9-9------9-9-----9-9----|
D|------------------------------------------------|
G|--------9-----------9---------9--------9-------9|
B|---7---------7---------7--------7-------7-------|
E|------------------------------------------------|

(baixo)
G|------------------------------------------------|
D|------9----9-----9-----9-----9----9-----9-----9-|
A|----7----7-----7----7-----7-----7-----7-----7---|
E|------------------------------------------------|

Colaboración y revision:
  • Edilson
  • Jefferson Neto
762 reproducciones
    • ½ Tono
    • A
    • Bb
    • B
    • C
    • Db
    • D
    • Eb
    • E
    • F
    • F#
    • G
    • Ab
  • Adicionar à lista

    0 comentarios

    Ver todos os comentários

    ¿Conseguiste tocar?

    13 Tocaram 1 Ainda não

    Grave um vídeo tocando Sponge Bob Theme e nos envie!

    00:00 / 00:00
    outros vídeos desta música
    repetir qualidade Automático
    Outros vídeos desta música
    00:00 / 00:00
    Automático
    OK