Cifra Club

Aprenda

Tema

Bob Esponja (Spongebob Squarepants)

Tablatura: Principal (guitarra)
tono: E
     E
E|----------------------------|
B|------9-----9------9-----9--|
G|------9-----9------9-----9--|
D|---------9------------9-----|
A|---7-----------7-7----------|
E|----------------------------|

[Solo]

E|---7-6-7-9-|
B|-----------|
G|-----------|
D|-----------|
A|-----------|
E|-----------

E|---12--15-14-15-14-15-12--12--|
B|---12---------------------12--|
G|------------------------------|
D|------------------------------|
A|------------------------------|
E|------------------------------|

E|---12-14-15-15-15s0-----|
B|------------------------|
G|------------------------|
D|------------------------|
A|------------------------|
E|------------------------|

E|---7-6-7-9-7-9-7|
B|----------------|
G|----------------|
D|----------------|
A|----------------|
E|----------------|

E|---11-12b-------|
B|----------------|
G|----------------|
D|----------------|
A|----------------|
E|----------------|
Colaboración y revision:
  • Gustavo Henrique
  • Pâmela Gama
  • André Rodrigues
913 reproducciones
    • ½ Tono
    • A
    • Bb
    • B
    • C
    • Db
    • D
    • Eb
    • E
    • F
    • F#
    • G
    • Ab
  • Adicionar à lista

    0 comentarios

    Ver todos os comentários

    ¿Conseguiste tocar?

    13 Tocaram 4 Ainda não

    Grave um vídeo tocando Tema e nos envie!

    00:00 / 00:00
    outros vídeos desta música
    repetir qualidade Automático
    Outros vídeos desta música
    00:00 / 00:00
    Automático
    OK