The Beginning Of The End

Steinar Albrigtsen

Composición de: Ken Smith / Wendell Mobley
tono: E (con acordes en la forma de D ) Capotraste en 2ª casa
Capo II 
 
Intro 
 
   Dsus2      C         G             D 
e|------0---------------------------------3p2-------- 
B|----3---3------1-3-1-------3----------3------------ 
G|---2-2-2-2----0-0-0-0----0---0-------2-2----------- 
D|--0---------------------0-0-0-0h2-0-------------0-- 
A|-------------3-------------------------------0h2--- 
E|-----------------------3--------------------------- 
 
Dsus2         C 
Back to back again 
G             D 
Lyin' in our bed 
Dsus2             C 
And I can't go to sleep 
G                                D  
From the cruel things that were said 
Bm                      E 
I've been through this before 
G                       A 
And now it's happening again 
D          C            G 
Through my tears I can see 
D       A              D 
The beginning of the end 
 
 
Going through the motions 
Is all that we do now 
And the rare times that we kiss 
There's just no feeling there somehow 
We used to be lovers 
But I'm not sure now if we're even friends 
It looks like we've reached 
The beginning of the end 
 
G               C           D 
It's such a bad feeling to know 
A            C 
That I can't stop this 
A           C 
I lay here helpless 
G                 Em            Asus A 
'Cause you don't know where to begin 
D      C               G 
And I know I'm looking at 
D        A         Bm 
The beginning of the end 
Em      A             D      G  D 
The beginning of the end 
 
 
 
Intro without capo 
 
  Esus2     Dsus2    A            D 
e|-----2---------0--------0-----------5p4------- 
B|---5---5-----3---3----------------5----------- 
G|--4-4-4-4---2-2-2-2---2---2------4-4---------- 
D|-2---------0---------2-2-2-2h4-2-----------2-- 
A|--------------------0-------------------2h4--- 
E|----------------------------------------------
Página 1 / 1

Letras y titulo
Acordes y artista

restablecer los ajustes
OK