Perdida

Stone Temple Pilots

Composición de: Jeff Gutt / Robert DeLeo
tono: C (con acordes en la forma de G ) Capotraste en 5ª casa
[Intro]

E|-------------------------|-------------------------|-------------------------|-2-|
B|--3-0-2-3-0-2-3-0-2-3-2--|--3-0-2-3-0-2-3-0-2-3-2--|--3-0-2-3-0-2-3-0-2-3-0--|-2-|
G|-------------------------|-------------------------|-------------------------|-3-|
D|-------------------------|-------------------------|-------------------------|-4-|
A|--2-------------------0--|-------------------------|-------------------------|-4-|
E|-------------------------|--3-------------------2--|--0-------------------0--|-2-|
 
[Primeira Parte]

Bm        Bm/A             Em
Thank you for the memories I carry
 F#                        Bm
The time is here to move along
 Bm         Bm/A             Em
Never been one to do things gracefully 
F#                         B
I know for that I'm always wrong
 
[Refrão 1]

B     Em
Oh Perdida, come and go 
A
Stay with me tonight 
           D                  F#
But in the morning, please be gone
 
E|--2----------------------|--3----------------------|--0----------------------|-2-|
B|--3-0-2-3-0-2-3-0-2-3-2--|--3-0-2-3-0-2-3-0-2-3-2--|--3-0-2-3-0-2-3-0-2-3-0--|-2-|
G|--4----------------------|--4----------------------|--0----------------------|-3-|
D|--4----------------------|--5----------------------|--2----------------------|-4-|
A|--2----------------------|--5----------------------|--2----------------------|-4-|
E|--X----------------------|--3----------------------|--0----------------------|-2-|
 
[Segunda Parte]

Bm         Bm/A            Em
I know the changes are the ones you see 
F#                           Bm    Em F#
I'm lost in circles most the time 
Bm          Bm/A            Em
As stronger reason gets the best of me 
F#                          B
Behind the smile I'm slowly dying
 
[Refrão 2]

B     Em
Oh Perdida, come and go
 A
Stay with me tonight 
           D                  F#
But in the morning, please be gone 
B         Em
And oh Perdida visits me 
A
I'll meet you in the sky 
          D               F#
Where the winds turn into breeze
                              
E|--2----------------------|--3----------------------|--0----------------------|-2-|
B|--3-0-2-3-0-2-3-0-2-3-2--|--3-0-2-3-0-2-3-0-2-3-2--|--3-0-2-3-0-2-3-0-2-3-0--|-2-|
G|--4----------------------|--4----------------------|--0----------------------|-3-|
D|--4----------------------|--5----------------------|--2----------------------|-4-|
A|--2----------------------|--5----------------------|--2----------------------|-4-|
E|--X----------------------|--3----------------------|--0----------------------|-2-|
 
[Solo]

E|-----------------|-----------------|-----------------|-----------------|-------------|
B|-----------------|-----------------|-----------------|-----------------|-------------|
G|-----------------|------2-0--------|------4-2-0---0--|------2-0--------|------3---5--|
D|------4-2-0---0--|----2-----4-2-4--|--1-4-------4----|----2-----4-2-4--|--4-4---4----|
A|----4-------4----|--4--------------|-----------------|--4--------------|-------------|
E|--2--------------|-----------------|-----------------|-----------------|-------------|
 
[Refrão 3]

B         Em
And oh Perdida, come and go 
A
Stay with me tonight 
           D                  F#
But in the morning, please be gone 
B         Em
And oh Perdida visits me 
A
I'll meet you in the sky 
          D               F#
Where the winds turn into breeze
 
[Final]

E|--2----------------------|--3----------------------|--0----------------------|-2-|
B|--3-0-2-3-0-2-3-0-2-3-2--|--3-0-2-3-0-2-3-0-2-3-2--|--3-0-2-3-0-2-3-0-2-3-0--|-2-|
G|--4----------------------|--4----------------------|--0----------------------|-3-|
D|--4----------------------|--5----------------------|--2----------------------|-4-|
A|--2----------------------|--5----------------------|--2----------------------|-4-|
E|--X----------------------|--3----------------------|--0----------------------|-2-|
Página 1 / 1

Letras y titulo
Acordes y artista

restablecer los ajustes
OK