Notificações Amigos pendentes

      Stone Temple Pilots

      Trippin' On a Hole In a Paper Heart

      246 reproducciones
      Tono: G
      
      ------|---------x-x-x-x-x-x-x-x-x-x-x-x---------x-x-x-x-x-x-x-|
      -4----|---------x-x-x-x-x-x-x-x-x-x-x-x---------x-x-x-x-x-x-x-|
      -2----|---------x-x-x-x-x-x-x-x-x-x-x-x---------x-x-x-x-x-x-x-|
      -2----|-4-4-4-4-x-x-x-x-x-x-x-x-x-x-x-x-4-4-4-4-x-x-x-x-x-x-x-|
      -0----|-4-4-4-4-x-x-x-x-x-x-x-x-x-x-x-x-4-4-4-4-x-x-x-x-x-x-x-|
      ------|-2-2-2-2-x-x-x-x-x-x-x-x-x-x-x-x-2-2-2-2-x-x-x-x-x-x-x-|
      
      intro                  v ^ continue rhythm
      
      
      -x-x-x-x-x----------------------------------------------------|
      -x-x-x-x-x-0-0-0-0-x-0-0-0-0-x-0-0--0-0-0-0-x-0-0-0-0-x-0-0---|
      -x-x-x-x-x-2-2-2-2-x-2-2-2-2-x-2-2--2-2-2-2-x-2-2-2-2-x-2-2---|
      -x-x-x-x-x-2-2-2-2-x-2-2-2-2-x-2-2--2-2-2-2-x-2-2-2-2-x-2-2---|
      -x-x-x-x-x-0-0-0-0-x-0-0-0-0-x-0-0--0-0-0-0-x-0-0-0-0-x-0-0---|
      -x-x-x-x-x----------------------------------------------------|
      
                 v ^ v ^m^ v ^ v ^m^ v ^m con.rhythm
      
      
      ---------x-x-x-x-x-x-x-x-x-x-x-x---------x-x-x-x-x-x-x-x-x-x-x-x---|
      ---------x-x-x-x-x-x-x-x-x-x-x-x---------x-x-x-x-x-x-x-x-x-x-x-x---|
      ---------x-x-x-x-x-x-x-x-x-x-x-x---------x-x-x-x-x-x-x-x-x-x-x-x-2-|
      -4-4-4-4-x-x-x-x-x-x-x-x-x-x-x-x-4-4-4-4-x-x-x-x-x-x-x-x-x-x-x-x-2-|
      -4-4-4-4-x-x-x-x-x-x-x-x-x-x-x-x-4-4-4-4-x-x-x-x-x-x-x-x-x-x-x-x-0-|
      -2-2-2-2-x-x-x-x-x-x-x-x-x-x-x-x-2-2-2-2-x-x-x-x-x-x-x-x-x-x-x-x---|
      
        verse riff>
      
      
      -----------------------------------------------|---------------------|
      -----------------------------------------------|---------------------|
      -2-2-2-x-2-2-2-2-x-2-2-2-2-2-2-x-2-2-2-2-x-2-2-|---------------------|
      -2-2-2-x-2-2-2-2-x-2-2-2-2-2-2-x-2-2-2-2-x-2-2-|---------------------|
      -0-0-0-x-0-0-0-0-x-0-0-0-0-0-0-x-0-0-0-0-x-0-0-|---------------------|
      -----------------------------------------------|---------------------|
      
                                                     <
      
      
      ------------0--------|-----------------------------------------------|
      ----------0-0----0---|-----------------------------------------------|
      ----------3-3----3---|-----------------------------------------------|
      -4-4-4-4--4------4---|-----------------------------------------------|
      -4-4-4-4-------------|-----------------------------------------------|
      -2-2-2-2-------------|-----------------------------------------------|
      
      verse riff2     m v v    v  m
      
      
      ----------------------------------------------------------------------|
      -0----------0------------0----------0---0--0---2---3--2--0------2---3-|
      -2----2-x-x-2----x-x-2---2----2-x-x-2---2--2---0---0--0--0------0---0-|
      -2----2-x-x-2----x-x-2---2----2-x-x-2----------0---0--0--0------0---0-|
      -0----0-x-x-0----x-x-0---0----0-x-x-0---------------------------------|
      ----------------------------------------------------------------------|
      
      prechorus    vmv ^ v    v ^ v   v    v v ^ v   v  v   v   ^  v  ^      v   ^
      
      
      ----------------|-------------------------------------------------------|
      --2--0---0--0---|-------------------------------------------------------|
      --0--0---0--0---|-------------------------------------------------------|
      --0--0---0------|-------------------------------------------------------|
      ----------------|-------------------------------------------------------|
      ----------------|-------------------------------------------------------|
      
        v  ^   ^  v m
      
      
      ----------------------------------------------------------------------|
      --------------------------------3--------------2---3--2--0------2---3-|
      -4------------------------------4----------x-x-0---0--0--0------0---0-|
      -4---4--4--4--4--4--4--4--4--4--4-x-x-4--2-x-x-0---0--0--0------0---0-|
      -2---2--2--2--2--2--2--2--2--2--2-x-x-2--0-x-x-0----------------------|
      ----------------------------------------------------------------------|
      
      Chorus riff^  v  ^  v  ^  v  ^  v  ^  v v ^ v  v v ^ v   ^  v  ^
      
      
      --------------|---------------------------------------------------|
      -2--0---0--0--|--------------------------4-4-4-4-4-4-4-4-4-4-4-4--|
      -0--0---0--0--|-4---------------------4--2-2-2-2-2-2-2-2-2-2-2-2--|
      -0--0---0--0--|-4---4--4--4--4--4--4--4--2-2-2-2-2-2-2-2-2-2-2-2--|
      --------------|-2---2--2--2--2--2--2--2--0-0-0-0-0-0-0-0-0-0-0-0--|
      --------------|---------------------------------------------------|
      
        v  ^   ^  v   End of Choru>v   ^  v  v  v  v  ^  vm v ^ v v ^ v
      
      
      ------|-------------------------------------------------------------------|
      -4-4--|-------------------------------------------------------------------|
      -2-2--|-------------------------------------------------------------------|
      -2-2--|-------------------------------------------------------------------|
      -0-0--|-------------------------------------------------------------------|
      ------|-------------------------------------------------------------------|
      
      ^ ^ <
      
      
      -9------9----------------9------9----------------------12-------12-------|
      -10b11--10b11------------10b11--10b11------------------12-------12-------|
      ---------------11-9-11-9---------------11-9-11-9-14b15----14b15----14b15-|
      -------------------------------------------------------------------------|
      -------------------------------------------------------------------------|
      -------------------------------------------------------------------------|
      
      solo
      
      
      -12---------12-------12-----14-18----14-17----14-17----14-18----14-18----14-|
      -12---------12-------12-----------17-------17-------17-------17-------17----|
      ------14b15----14b15----r14-------------------------------------------------|
      ----------------------------------------------------------------------------|
      ----------------------------------------------------------------------------|
      ----------------------------------------------------------------------------|
      
      
      -14-18----14-18----14-18---14-18----14-18-17-17----------------------17-----|
      -------17-------17-------17------17-------14-14-19-19-19-19-19-19-19-19-19b-|
      ------------------------------------------------18-18-18-18-18-18-18--------|
      ----------------------------------------------------------------------------|
      ----------------------------------------------------------------------------|
      ----------------------------------------------------------------------------|
      
      
      -17-----17-----17-------------------------17------17-----17-----17----------|
      ----19b----19b---19b-19-19-19-19-19-19-19-19--19b----19b----19b----17b18b19-|
      ---------------------18-18-18-18-18-18-18-----------------------------------|
      ----------------------------------------------------------------------------|
      ----------------------------------------------------------------------------|
      ----------------------------------------------------------------------------|
      
      
      ----------------------------------------------------------------------------|
      -171917---------------------------------------------------------------------|
      --------18-16-18-16-16\14----16-14----------------------------------------2-|
      --------------------------16-------16-14------------------------------2-4---|
      -----------------------------------------15-14-12-14b15-14-12-14b15---------|
      ----------------------------------------------------------------------------|
      
      
      ----------------------------------------------------------------------------|
      ---------------------------------------------5/7----------------------------|
      ---4---2---2---2-4/6-------2---2---2---2---2----------------------------6-9-|
      -4---4---4---4---------2-4---4---4---4---4----------------------------------|
      --------------------------------------------------------------------7-9-----|
      --------------------------------------------------2-4-5-5-7-9-5-7-9---------|
      
      
      --------------------------------------------------------------------------|
      ----------10-12--12b13-12-10-12--12b13--12-10-12-12b13-10-12-10-11-11--11-|
      -6---6/11-----------------------------------------------------------------|
      ---9----------------------------------------------------------------------|
      --------------------------------------------------------------------------|
      --------------------------------------------------------------------------|
      
      
      ---------|----------------------------------------------------|-------|
      ---------|-------------------------4-4-4-4-4-4-4-4-4-4-4-4-4--|-------|
      ---------|-4--------------------4--2-2-2-2-2-2-2-2-2-2-2-2-2--|-------|
      ---------|-4--4--4--4--4--4--4--4--2-2-2-2-2-2-2-2-2-2-2-2-2--|-------|
      ---------|-2--2--2--2--2--2--2--2--0-0-0-0-0-0-0-0-0-0-0-0-0--|-------|
      ---------|----------------------------------------------------|-------|
      
        out >>>                        m v ^ v v ^ v ^ v ^ v ^ v ^m <
      
      2  versão
      
      Stone Temple Pilots
      Trippin on a hole in a paper heart 
      opening chord
      ----
      ----
      -8--
      -7--
      -7--
      -5--
      
      VERSE
      
      
      ---------------------------------- \\\\
      ----------------------------------  |
      ----------------------------------  |
      -4-4-4-4----------4-4-4-4---------  |
      -4-4-4-4----------4-4-4-4---------  |
      -2-2-2-2-x-x-x-x--2-2-2-2-x-x-x-x-  |
                                          |
      -------------------------------     2X
      -------------------------------     |
      
      -8-                                 |
      -7- Keep strumming this chord--     |
      -7-                                 |
      -5- ---------------------------     |
                                          
      
      
      -------------0----------------0---  
      -----------0---0------------0---0-  
      ---------3------3---------3------3  
      -4-4-4-4----------4-4-4-4---------  
      -4-4-4-4----------4-4-4-4---------  
      -2-2-2-2----------2-2-2-2---------  
      
      
      ---------------------------
      ---------------------------
      -8-------------------------
      -7-----------7-------------
      -7- strum ---7- strum -----
      -5-----------4-------------
      
      CHORUS
      ------------------ \\\\
      -2-3-2-0--2-3-2-0- |
      -0-0-0-0--0-0-0-0- |
      -0-0-0-0--0-0-0-0- |
      ------------------ |
      -3-3-3-3--3-3-3-3- |
                         |
      -0---------------  3x on chours 2 and 3  
      -0---------------  |
      -4-------------6-  |
      -4- strum -----6-  |
      -2-------------4-  |
      -----------------  /
      
      
      ------------------
      -2-3-2-0--2-3-2-0-
      -0-0-0-0--0-0-0-0-
      -0-0-0-0--0-0-0-0-
      ------------------
      -3-3-3-3--3-3-3-3-
      
      
      -0----------------------
      -0----------------------
      -4-------------2--------
      -4- strum -----2- strum-
      -2-------------0--------
      ------------------------
        Composición: Eric Kretz / Scott WeilandColaboración y revision:
        • Eliakin Wildner

        Comentarios 1

        140 .
        • foboy foboy: Em 02/02/2015 18:07

          só não aprendi o solo pq meu violão não permite

        140 cancelar

        ¿conseguiste tocar?

        covers

        ¡Grave un vídeo tocando Trippin' On a Hole In a Paper Heart y envie para nosotros!

        Ex.: http://www.youtube.com/watch?v=0IvSvIwGdwk
        ver cover de otras canciones »
        0:00 / 0:00

        Capitulos

          1 versão de guitarra dificuldad reproducciones contribuición y correción
          1 versão de guitarra eléctrica dificuldad reproducciones contribuición y correción
          1 versão de cavaco dificuldad reproducciones contribuición y correción
          1 versão de teclado dificuldad reproducciones contribuición y correción
          2 versões de contrabajo reproducciones contribuición y correción
          1 versão de batería reproducciones contribuición y correción
          3 versões de Guitar Proformatodownloadscontribuición
          play/pausefechar subir/bajar velocidad
          6ª cuerda E5ª cuerda A4ª cuerda D3ª cuerda G2ª cuerda B1ª cuerda E
            acordes
            publicidad
            cerrar
            ok