Rivers of Babylon

Sublime

Composição: Brenton Dowe / Trevor McNaughton
Tom: G
[Riff]

E|-------------3--3-3--3-3-3-----|
B|-------------3--3-3--3-3-3-----|
G|-------------0--0-0--0-0-0-----|
D|-------------0--0-0--0-0-0-----|
A|------2-2-3--2--2-2--2-2-2-----|
E|--3-3--------3--3-3--3-3-3-----|

E|-------------2--2-2--3-2-2-----|
B|-------------3--3-3--3-3-3-----|
G|-------------2--2-2--2-2-2-----|
D|-------------0--0-0--0-0-0-----|
A|--2-2-3-3-2--------------------|
E|-------------------------------|

E|----------------3--3-3--3-3-3--|
B|----------------3--3-3--3-3-3--|
G|----------------0--0-0--0-0-0--|
D|--2-2-0--------0--0-0--0-0-0---|
A|----------0----2--2-2--2-2-2---|
E|--------------3-3--3-3--3-3-3--|

[Primeira Parte]

                 G
By the rivers of babylon
             G
Where he sat down
             D
And there he wept
                   G
When we remembered Zion

[Refrão]

Alpha the wicked 
G
Carry us away captivity 
  C
Required from us a song
G
How can we sing King Alfa's song
      D          G
In a strange land
           
           G            D
So let the words of our mouths
              G           D
And the meditation of our hearts
       G             D      
Be acceptable in thy sight
         G
Over I

[Riff]

E|-------------3--3-3--3-3-3-----|
B|-------------3--3-3--3-3-3-----|
G|-------------0--0-0--0-0-0-----|
D|-------------0--0-0--0-0-0-----|
A|------2-2-3--2--2-2--2-2-2-----|
E|--3-3--------3--3-3--3-3-3-----|

E|-------------2--2-2--3-2-2-----|
B|-------------3--3-3--3-3-3-----|
G|-------------2--2-2--2-2-2-----|
D|-------------0--0-0--0-0-0-----|
A|--2-2-3-3-2--------------------|
E|-------------------------------|

E|----------------3--3-3--3-3-3--|
B|----------------3--3-3--3-3-3--|
G|----------------0--0-0--0-0-0--|
D|--2-2-0--------0--0-0--0-0-0---|
A|----------0----2--2-2--2-2-2---|
E|--------------3-3--3-3--3-3-3--|

[Primeira Parte]

                 G
By the rivers of babylon
             G
Where he sat down
             D
And there he wept
                   G
When we remembered Zion

[Refrão]

Alpha the wicked 
G
Carry us away captivity 
  C
Required from us a song
G
How can we sing King Alfa's song
      D          G
In a strange land
           
           G            D
So let the words of our mouths
              G           D
And the meditation of our hearts
       G             D      
Be acceptable in thy sight
         G
Over I

G
How can we sing King Alfa's song
     D           G
In a strange land

     G       D       C
E|---3------2------0-------------|
B|---3------3------1-------------|
G|---0------2------0-------------|
D|---0------0------2-------------|
A|---2-------------3-------------|
E|---3---------------------------|
Página 1 / 1

Letras y titulo
Acordes y artista

restablecer los ajustes
OK