Every Morning Intro

Sugar Ray

tono: Db
This transcription is entirely the work of the transcriber and interpreted 
as close as possible to the version as heard on the CD.


E----------------------------------------------------------------------------
B---9---9---9---9---9---9--------6---6---6---6---6--------4---4---4----------
G---8---8---10--8---10--8--------6---8---6---8---6--------5---6---5----------
D----------------------------------------------------------------------------
A----------------------------------------------------------------------------
E----------------------------------------------------------------------------

E----------------------------------------------------------------------------
B---9---9---9---9---9---9----------------------------------------------------
G---8---8---8---8-H-10--8----------------------------------------------------
D---------------------------11--10-------------------------------------------
A----------------------------------------------------------------------------
E----------------------------------------------------------------------------


Página 1 / 1

Letras y titulo
Acordes y artista

restablecer los ajustes
OK