Someday

Sugar Ray

Composición de: David Kahne / Sugar Ray
tono: E
Afinação padrão
Riff que acompanha a música na introdução e versos:
--------------------------------------------------------------------
E||-------------------------|--------------2----------------|-----||
B||--0--------0----------0--|-----------2-----5--4^5^4---2--|-----||
G||-----1----------1--------|--------2----------------------|-----||
D||--------2----------2-----|---2/4-------------------------|-----||
A||-------------------------|-------------------------------|-----||
E||-------------------------|-------------------------------|-----||
--------------------------------------------------------------------
/ = slide
^ = hammer e pull of (marteladas)
--------------------------------------------------------------------
                Verso 1:
        E       F#m               E            F#m
        Someday, when my life has passed me by,
                            E
        I'll lay around and wonder
                     F#m                E
        Why you were always there for me.

                Verso 2:
        E       F#m               E         F#m
        One way, in the eyes of a passer by,
                              E                 F#m
        I'll look around for another try,
                        E
        And I'll fade away.

                Refrão:
        A                             G#m
        Just close your eyes and I'll take you there
        A                       G#m
        This place is warm, without a care
        A                        G#m
        We'll take a swim in the deep blue sea
        A                     B
        I go to leave but you reach for me

                Verso 3:
        E        F#m                 E             F#m
        Some say, better things will come our way
                            E
        No matter what they try to say
                 F#m                E
        You were always there for me
        
                Verso 4:
        E       F#m             E               F#m
        Someway, when the sun begins to shine
                            E           F#m
        I hear a song from another time
                        E
        and I'll fade away.
Página 1 / 1

Letras y titulo
Acordes y artista

restablecer los ajustes
OK