Some Say

Sum 41

Composición de: Deryck Whibley / Greig Nori
tono: Db
Tuning: Eb

INTRO/VERSE  CLEAN      
      Bm       D       Em        G
eb|----2-------2--------0--------3----|
Bb|----3-------3--------0--------3----|
Gb|----4-------2--------0--------0----|
Db|----4-------0--------2--------0----|
Ab|----2----------------2--------2----|
Eb|----2----------------0--------3----|

CHORUS   DISTORTION

Think before you make up your mind...
eb|----------------------------|
Bb|----------------------------|
Gb|---4-------7----------------|
Db|---4---5---7---7---2---5----|
Ab|---2---5---5---7---2---5----|
Eb|-------3-------5---0---3----|

And if I fall...
eb|----------------------------|
Bb|----------------------------|
Gb|---7------------------------|
Db|---7---7---2---5------------|
Ab|---5---7---2---5------------|
Eb|-------5---0---3------------|

SOLO

Parte 1 (2X)
eb|----------------------------------------------------------|
Bb|-------10--7h8p7h8-7----5-5-5-5-7-7-7-7-8-8-8-8--7h8p7----|
Gb|---6/7----------------------------------------------------|
Db|----------------------------------------------------------|
Ab|----------------------------------------------------------|
Eb|----------------------------------------------------------|

Parte 2 (2X)
eb|----------------------------------------------------------------|
Bb|------------7-7-8-7--7h8-7----------------------------7h8-7-----|
Gb|---7-7-9-9------------------9-9-9-9-7-7-7-7-9-9-9-9----------9--|
Db|----------------------------------------------------------------|
Ab|----------------------------------------------------------------|
Eb|----------------------------------------------------------------|

Final do solo:
eb|------------------|
Bb|------------------|
Gb|---7-7-7h8-7~-----|
Db|------------------|
Ab|------------------|
Eb|------------------|

OUTRO(2X)

Believe me, it's alright...
eb|-------------------|
Bb|-------------------|
Gb|---4-------7-------|
Db|---4---5---7---7---|
Ab|---2---5---5---7---|
Eb|-------3-------5---|

FINAL: 
eb|--------|
Bb|--------|
Gb|--------|
Db|---5~---|
Ab|---5~---|
Eb|---3~---|
Página 1 / 1

Letras y titulo
Acordes y artista

restablecer los ajustes
OK