Betty Blues

The 69 Eyes

tono: E
Parte 1:
E|--------------------------------------------------------------------------------------------
B|--------------------------------------------------------------------------------------------
G|----6----6-----6---6----6----6------6----6---------6----6-----6----6-------6----6----6----6-
D|-6----6----6-7---7---7----------5-6----6----9p7--6----6---6-7----7---7----------------------
A|-----------------------9----9--------------------------------------------9-----9----9----9--
E|--------------------------------------------------------------------------------------------

Parte 2:
E|--4-0---------4-0-----------------
B|------4-5----------4-5-----7--5--4   (2x)
G|----------------------------------
D|----------------------------------
A|----------------------------------
E|----------------------------------

Parte 3:
E|------------------------------------------------------------------------
B|------------------------------------------------------------------------
G|------------------------------------------------------------------------
D|------------------------------------------------------------------------
A|-5-x--3-x--4-x--9-x-9-x-7-x-7-x-5-x-5-x-3-x-3-x-4-x-4-x---5-x-5-x--7-4--     
E|-3-x--1-x--2-x--7-x-7-x-5-x-5-x-3-x-3-x-1-x-1-x-2-x-2-x---3-x-3-x--5-2--   
Página 1 / 1

Letras y titulo
Acordes y artista

restablecer los ajustes
OK