Sell Your Dope

Afroman

Tabbed By : Triple B. (Baddest Boy Bassist)
e-mail: *

Tuning:normal

G|---------------------------------------------------------------------------|
D|---------------------------------------------------------------------------|
A|--12--12--------------------------------------------------12---------------|
E|----------12----12--12---10----10--10--12----12--12--12--------------------|
                                  The intro bit.
G|---------------------------------------------------------------------------|
D|---------------------------------------------------------------------------|
A|--12--12--------------------------------------------12------------11-12----|
E|----------12----12--12--10----10--10--12----12--12-------12-12-12----------|

This song took a lil time to make, but i did it. Its quite slow untill the lil bit at 
end.

Triple B. ( Baddest Boy Bassist)
Página 1 / 1

Letras y titulo
Acordes y artista

restablecer los ajustes
OK