Cifra Club

House Of The Rising Sun Solo

The Animals

Tablatura: Principal (guitarra)
Tom: C
Organ Solo transcribed for guitar
e|---5--7--8--12--12--12--12--10--8--5--5--3--5--17--17--17--17--15-|
B|------------------------------------------------------------------|
G|------------------------------------------------------------------|
D|------------------------------------------------------------------|
A|------------------------------------------------------------------|
E|------------------------------------------------------------------|


e|---12--10--12h15p12h15p12h15p12h15p12h15p12h15p12h15p12h15p12h15p-|
B|------------------------------------------------------------------|
G|------------------------------------------------------------------|
D|------------------------------------------------------------------|
A|------------------------------------------------------------------|
E|------------------------------------------------------------------|


e|---12--10--8--5--12--12--12--12--12--10--8--5--5--3--5--5p3-------|
B|-------------------------------------------------------------5----|
G|----------------------------------------------------------------2-|
D|------------------------------------------------------------------|
A|------------------------------------------------------------------|
E|------------------------------------------------------------------|


e|-----------------------------------------------------------------|
B|---1--3--5--3--5--3--1-------------------------------------------|
G|------------------------2--0--2----------------------------------|
D|-----------------------------------------------------------------|
A|-----------------------------------------------------------------|
E|-----------------------------------------------------------------|
reproducciones 616
Acordes para:

    0 comentarios

    mostrar más comentarios

    ¿Conseguiste tocar?

    0 tocaron 0 aún no

    ¡Graba un vídeo tocando House Of The Rising Sun Solo y envianoslo!

    00:00 / 00:00
    outros vídeos desta música
    repetir qualidade Automático
    Outros vídeos desta música
    00:00 / 00:00
    Automático
    OK