Cifra Club

The House Of The Rising Sun

The Animals

Tablatura: Principal
reproducciones 599
Tono: D
House Of The Rising Sun
Tabbed by Brandon Williams
B*

Let me start off by saying I don't know what chord this is:

E|-------0-----|
B|------2--2---|
G|-----1-----1-|
D|-------------|
A|-------------|
E|-0-----------|

In all the other posts of this song, they call it an E7. But an E7 looks like 020100.  It sounds right
so I guess I'll call it an E7, too.  Does anyone know how to play the organ solos on guitar?  If so, contact
via e-mail.  Anyway, my tab should be the most accurate of all the other posts of this song.

Intro:

     Am               C              D              F
E|-------0-----|-------0-----|-------2-----|-------1-----|
B|------1--1---|------1--1---|------3--3---|------1--1---|
G|-----2-----2-|-----0-----0-|-----2-----2-|-----2-----2-|
D|-------------|-------------|-0-----------|-3-----------|
A|-0-----------|-3-----------|-------------|-------------|
E|-------------|-------------|-------------|-------------|

       Am              E7           Am               E7
E|-------0-----|-------0-----|-------0-----|-------0-----|
B|------1--1---|------2--2---|------1--1---|------2--2---|
G|-----2-----2-|-----1-----1-|-----2-----2-|-----1-----1-|
D|-------------|-------------|-------------|-------------|
A|-0-----------|-------------|-0-----------|-------------|
E|-------------|-0-----------|-------------|-0-----------|

This part repeats throughout the rest of the song and is also the solo backing:

         Am              C           D               F
E|-------0-----|-------0-----|-------2-----|-------1-----|
B|------1--1---|------1--1---|------3--3---|------1--1---|
G|-----2-----2-|-----0-----0-|-----2-----2-|-----2-----2-|
D|-------------|-------------|-0-----------|-3-----------|
A|-0-----------|-3-----------|-------------|-------------|
E|-------------|-------------|-------------|-------------|

     Am               C              E             E7
E|-------0-----|-------0-----|-------0-----|-------0-----|
B|------1--1---|------1--1---|------0--0---|------2--2---|
G|-----2-----2-|-----0-----0-|-----1-----1-|-----1-----1-|
D|-------------|-------------|-------------|-------------|
A|-0-----------|-3-----------|-------------|-------------|
E|-------------|-------------|-0-----------|-0-----------|

      Am               C               D            F
E|-------0-----|-------0-----|-------2-----|-------1-----|
B|------1--1---|------1--1---|------3--3---|------1--1---|
G|-----2-----2-|-----0-----0-|-----2-----2-|-----2-----2-|
D|-------------|-------------|-0-----------|-3-----------|
A|-0-----------|-3-----------|-------------|-------------|
E|-------------|-------------|-------------|-------------|

       Am               E7
E|-------0-----|-------0-----|
B|------1--1---|------2--2---|
G|-----2-----2-|-----1-----1-|
D|-------------|-------------|
A|-0-----------|-------------|
E|-------------|-0-----------|

     Am               C              D              F
E|-------0-----|-------0-----|-------2-----|-------1-----|
B|------1--1---|------1--1---|------3--3---|------1--1---|
G|-----2-----2-|-----0-----0-|-----2-----2-|-----2-----2-|
D|-------------|-------------|-0-----------|-3-----------|
A|-0-----------|-3-----------|-------------|-------------|
E|-------------|-------------|-------------|-------------|

       Am              E7           Am               E7
E|-------0-----|-------0-----|-------0-----|-------0-----|
B|------1--1---|------2--2---|------1--1---|------2--2---|
G|-----2-----2-|-----1-----1-|-----2-----2-|-----1-----1-|
D|-------------|-------------|-------------|-------------|
A|-0-----------|-------------|-0-----------|-------------|
E|-------------|-0-----------|-------------|-0-----------|


Outtro:

       Am              E7           Am               E7
E|-------0-----|-------0-----|-------0-----|-------0-----|
B|------1--1---|------2--2---|------1--1---|------2--2---|
G|-----2-----2-|-----1-----1-|-----2-----2-|-----1-----1-|
D|-------------|-------------|-------------|-------------|
A|-0-----------|-------------|-0-----------|-------------|
E|-------------|-0-----------|-------------|-0-----------|

       Am              E7           Am               E7
E|-------0-----|-------0-----|-------0-----|-------0-----|
B|------1--1---|------2--2---|------1--1---|------2--2---|
G|-----2-----2-|-----1-----1-|-----2-----2-|-----1-----1-|
D|-------------|-------------|-------------|-------------|
A|-0-----------|-------------|-0-----------|-------------|
E|-------------|-0-----------|-------------|-0-----------|

       Am              E7           Am               E7
E|-------0-----|-------0-----|-------0-----|-------0-----|
B|------1--1---|------2--2---|------1--1---|------2--2---|
G|-----2-----2-|-----1-----1-|-----2-----2-|-----1-----1-|
D|-------------|-------------|-------------|-------------|
A|-0-----------|-------------|-0-----------|-------------|
E|-------------|-0-----------|-------------|-0-----------|

Lyrics:

There is a house in New Orleans
They call the rising sun
And it's been the ruin of many a poor boy
And god, I know I'm one

My mother was a tailor
She sewed my new blue jeans
My father was a gambling man
Down in New Orleans

Now the only thing a gambler needs
Is a suitcase and a trunk
And the only time he's satisfied
Is when he's all drunk

Oh, Mother tell your children
Not to do what I have done
Spend your life in sin and misery
In the house of the rising sun

I've got one foot on the platform
The other foot on the train
I'm going back to New Orleans
To wear that ball and chain

Well, there is a house in New Orleans
They call the rising sun
And it's been the ruin of many a poor boy
And god, I know I'm one

E|------------------------------------------------------|
B|------------------------------------8/10-10-10-8------|
G|--------------------4-5~~--7b~-------------------7-9--|
D|-------------7-7~~----------7-5-7---------------------|
A|------------------------------------------------------|
E|------------------------------------------------------|

E|------------------------------------------------------|
B|----10------------------------------------------------|
G|--9-----12b-12-5-5-7-----5----------------------------|
D|---------------------7-7---7-7-6-6-7------------------|
A|------------------------------------------------------|
E|------------------------------------------------------|
Acordes para:
    Compositor: Alan Price / Jörgen ElofssonColaboración y revision:
    • Marcio Carvalho

    0 comentarios

      mostrar más comentarios

      ¿Conseguiste tocar?

      9tocaron0aún no

      ¡Graba un vídeo tocando The House Of The Rising Sun y envianoslo!

      00:00 / 00:00
      outros vídeos desta música
      repetirqualidadeautomática
      Outro vídeos desta música
        00:00 / 00:00
        automática
        OK