Hey Jude

The Beatles

Composição: John Lennon / Paul McCartney
Tom: F
[Primeira Parte]

   F                 C
E|----------------------------------------------------|
B|-------------------1---1---1---1--------------------|
G|-2---2---2---2-----0---0---0---0--------------------|
D|-3---3---3---3-----2---2---2---2--------------------|
A|-3---3---3---3-----3-3-3-3-3-3-3-3------------------|
E|-1-1-1-1-1-1-1--------------------------------------|

   C7              F 
E|----------------------------------------------------|
B|-1---1---1---1--------------------------------------|
G|-3---3---3---3---2---2---2---2----------------------|
D|-2---2---2---2---3---3---3---3----------------------|
A|-3-3-3-3-3-3-3---3---3---3---3----------------------|
E|-----------------1-1-1-1-1-1-1-1--------------------|

   Bb                F
E|----------------------------------------------------|
B|-3---3---3---3--------------------------------------|
G|-3---3---3---3-----2---2---2---2--------------------|
D|-3---3---3---3-----3---3---3---3--------------------|
A|-1-1-1-1-1-1-1-1---3---3---3---3--------------------|
E|-------------------1-1-1-1-1-1-1-1------------------|

   C                 F 
E|----------------------------------------------------|
B|-1---1---1---1--------------------------------------|
G|-0---0---0---0-----2---2---2------------------------|
D|-2---2---2---2-----3---3---3------------------------|
A|-3-3-3-3-3-3-3-----3---3---3------------------------|
E|-------------------1-1-1-1-1------------------------|

      F                   C
Hey, Jude, don't make it bad
        C7                   F
Take a sad song and make it better
   Bb                           F
Remember, to let her into your heart
               C                F
Then you can start, to make it better

[Segunda Parte]

      F                C
Hey, Jude, don't be afraid
          C7                 F
You were made to go out and get her
     Bb                             F
The minute you let her under your skin
            C              F
Then you begin to make it better

[Terceira Parte]

F7                             Bb
  And anytime you feel the pain
      F/A      Gm
Hey, Jude, refrain,
       F         C/E              F        F7
Don't carry the world upon your shoulders

                               Bb
For well you know that it's a fool
      F/A     Gm
Who plays it cool
    F          C/E            F
By making his world a little colder
               C
Na na na na na na na na na

[Quarta Parte]

      F                  C
Hey, Jude, don't let me down
          C7                   F
You have found her now go and get her
   Bb                          F
Remember to let her into your heart
               C               F
Then you can start to make it better

F7                         Bb
  So let it out and let it in
      F/A     Gm
Hey, Jude, begin
         F          C/E           F         F7
You're waiting for someone to perform with
                                 Bb
And don't you know that is just you?
      F/A          Gm
Hey, Jude, you'll do
     F            C/E              F
The movement you need is on your shoulder
                C
Na na na na na na na na na

[Quinta Parte]

      F                   C
Hey, Jude, don't make it bad
        C7                   F
Take a sad song and make it better
   Bb                            F
Remember to let her under your skin
               C              F
Then you'll begin to make it better (better, better, better,better, better, oh!)

           Eb           Bb               F
Na, na na na na na na ,na na na na, Hey Jude
           Eb           Bb               F
Na, na na na na na na ,na na na na, Hey Jude
           Eb           Bb               F
Na, na na na na na na ,na na na na, Hey Jude

Na, na na na na na na ,na na na na, Hey Jude
Página 1 / 1

Letras y titulo
Acordes y artista

restablecer los ajustes
OK