Just Like Heaven Solo

The Cure

Composição de: Boris Williams / Laurence Tolhurst / Porl Thompson / Robert Smith / Simon Gallup
tono: E
hey its punkdude969 and umm this is an 
easier way to play the intro...

bass goes...
G]-----------------------------]
D]-----------------00000-------]
A]-00000------22222------------]
E]-------00000-----------------]

guitar goes like
e]-9-9-9----------------------------------------------------]
B]------12-12-12-10-10-9-9-9--------------------------------]
G]--------------------------11-11-11-9-9-7-7-6/7\6-4-4-2-4--]
D]----------------------------------------------------------]
A]----------------------------------------------------------]
E]----------------------------------------------------------]
after that two times then do this...

e]-----------------------------------------------9-9-9-10-10-12-12-12-10-10-]
B]--------------------------9-9-9-10-10-12-12-12----------------------------]
G]-6-6-6-7-7-7-9-9-11-11-11-------------------------------------------------]
D]--------------------------------------------------------------------------]
A]--------------------------------------------------------------------------]
E]--------------------------------------------------------------------------]
and then do once more the first part..

here is the piano solo

e]-12-12-12-12-9----------------12------
B]---------------10--12-12-10-12--------
G]---------------------------------11---

e]-12-12-12-12-9----------------9-10-9-10-12------
B]---------------10--12-12-10-12------------10----
G]------------------------------------------------

e]-17-17-17-17-19 21-17-19-17-19-17-19-------10-9-10-9-----------10-9-10-9---
B]-----------------------------------------------------10-10---------------10
G]---------------------------------------------------------------------------

there you gO
Página 1 / 1

Letras y titulo
Acordes y artista

restablecer los ajustes
OK