Enviar cifraEntrar

Hotel California

Eagles

Acordes: 12cordas
reproducciones 871
Tono: D (con acordes en la forma de G) Capo en 7ª casa
(Violão 2 - 12 cordas)

Intro:

1ª parte:


    Em7(9)   D9/E     Am     B7
E|--2--------0--------0---------------------
B|--0--------3--------1-------------4-------
G|--0--------2--------2----------2--2-------
D|--0--------4--------2--------4----4-------
A|--2--------5--------0------2------2-------
E|--0--------0------------------------------


    Em7(9)   D9/E     Am     B7
E|--2--------0--------0------2--------------
B|--0--------3--------1------4--------------
G|--0--------2--------2------2--------------
D|--0--------4--------2------4--------------
A|--2--------5--------0------2--------------
E|--0--------0------------------------------



Dedilhado intro:

1ª parte:


    Em                B7/D#
E|--------------------------2----2----------
B|------------0-----------0------0----------
G|--------0-----0-2-----2-----2--2----------
D|------2---2---------1----------1----------
A|----2-------------------------------------
E|--0---------------------------------------



2ª parte:


    D5(9)           A7(9)/C#
E|--------0--------------------0------------
B|------3-----3-----------0----0------------
G|----2-----2---2-------0---0--0------------
D|--0-----------------2--------2------------
A|------------------4----------4------------
E|------------------------------------------



3ª parte:


    C                    G/B
E|------------0----------------3----3-------
B|--------1------------------0------0-------
G|------0------------0-----0-----0--0-------
D|----2-----2----0h2----------------0-------
A|--3--------------------2----------2-------
E|------------------------------------3-----



4ª parte:


    Am            B7
E|------------0--------------2--------------
B|--------1-------------0-------------------
G|------2---2---------2---2-----------------
D|----2-------------1-----------------------
A|--0-------------2-------------------------
E|------------------------------------------



Primeira parte:

1ª parte:


   Em               B7/D#
E|------------------------2----2-2-2---2-2--
B|-----------0----------0------0-0-0---0-0--
G|-------0-----0-2----2-----2--2-2-2---2-2--
D|-----2---2--------1----------1-----1------
A|---2--------------------------------------
E|-0----------------------------------------



2ª parte:


   D5(9)                  A7(9)/C#
E|-------0----0-0-0---0-0------------0------
B|-----3------3-3-3---3-3-------0----0------
G|---2-----2--2-2-2---2-2-----0---0--0------
D|-0----------0-------------2--------2------
A|------------------0-----4----------4------
E|------------------------------------------



3ª parte:


   C                     G/B
E|-----------0-0-0-------------3--3-3-3-3-3-
B|-------1---1-1-1-----------0----0-0-0-0-0-
G|-----0-----0-0-0-----0---0----0-0-0-0-0-0-
D|---2-----2-2-----0h2------------0---------
A|-3---------3-----------2--------2---------
E|-------------------------------------3----



4ª parte:


   Am                    B7
E|-----------0-0-0---0-0------------2-2-2---
B|-------1---1-1-1---1-1-------0----0-0-0---
G|-----2---2-2-2-2---2-2-----2---2--2-2-2---
D|---2-------2-------------1--------1-----1-
A|-0---------0-----------2----------2-------
E|-----------------0------------------------



Primeira estrofe:
Em
   On a dark desert highway,
B7/D#
      Cool wind in my hair
D5(9)
      Warm smell of colitas
A7(9)/C#
         Rising up through the air
C
  Up ahead in the distance
G/B
    I saw a shimmering light
Am
   My head grew heavy and my sight grew dim
B7
   I had to stop for the night

Segunda estrofe:
Em
   There she stood in the doorway
B7/D#
      I heard the mission bell
D5(9)
      And I was thinking to myself
A7(9)/C#
         This could be Heaven or this could be Hell
C
  Then she lit up a candle
G/B
    And she showed me the way
Am
   There were voices down the corridor
B7
   I thought I heard them say

Refrão:

1ª parte:


    C
E|------------0-0-0---0-0-------------------
B|--------1---1-1-1---1-1-------------------
G|------0---0-0-0-0---0-0-------------------
D|----2-------2-----------------------------
A|--3---------3-----3-----------------------
E|------------------------------------------



2ª parte:


    G                      B7
E|------------3-3-3---3-3------------2------
B|------------0-0-0---0-0--------0---0------
G|--------0---0-0-0---0-0------2---2-2------
D|------0---0-0-----0--------1-------1-1----
A|----2-------2------------2---------2------
E|--3---------------------------------------



3ª parte:

    Em

E|------------------------------------------
B|--------0-----0----------0-----0----------
G|------0-----0----------0-----0------------
D|----2-----2-----2----2-----2-----2--------
A|------------------------------------------
E|--0----------------0----------------------



4ª parte:


    C
E|------------0-0-0---0-0-------------------
B|--------1---1-1-1---1-1-------------------
G|------0---0-0-0-0---0-0-------------------
D|----2-------2-----------------------------
A|--3---------3-----3-----------------------
E|------------------------------------------



5ª parte:


    G
E|------------3-3-3---3-3-------------------
B|------------0-0-0---0-0-------------------
G|--------0---0-0-0---0-0-------------------
D|------0---0-0-----0-----------------------
A|----2-------2-----------------------------
E|--3---------------------------------------



6ª parte:


   Am                    B7
E|-----------0-0-0---0-0----------2---------
B|-------1---1-1-1---1-1-------4--4---------
G|-----2---2-2-2-2---2-2-----2----2---------
D|---2-------2-------------4------4---------
A|-0---------0-----0-----2--------2---------
E|------------------------------------------



C                           G
  Welcome to the Hotel California
        B7
Such a lovely place
        Em
Such a lovely face
  C                              G
Plenty of room at the Hotel California
     Em
Any time of year
         B7
You can find us here

(Segunda Parte - repete dedilhado primeira parte)

Primeira estrofe:

Em
   Her mind is Tiffany-twisted
B7/D#
      She got the Mercedes-Benz
D5(9)
      She got a lot of pretty, pretty boys
A7(9)/C#
         That she calls friends
C
  How they dance in the courtyard
  G/B
Sweet summer sweat
Am
   Some dance to remember
B7
   Some dance to forget

Segunda estrofe:
Em
   So I called up the Captain
B7/D#
      Please bring me my wine, he said
D5(9)
      We haven't had that spirit here since
A7(9)/C#
         Nineteen sixty-nine
C                                          G/B
  And still those voices are calling from far away
Am
   Wake you up in the middle of the night
B7
   Just to hear them say

Refrão:
C                           G
  Welcome to the Hotel California
        B7
Such a lovely place
        Em
Such a lovely face
       C                             G
We're livin' it up at the Hotel California
        Am
What a nice surprise
           B7
Bring your alibis

Terceira parte:

1ª parte:


    Em                B7/D#
E|--------------------------2---------------
B|------------0-----------0-----------------
G|--------0-----0-2-----2-----2-------------
D|------2---2---------1----------1----------
A|----2-------------------------------------
E|--0---------------------------------------



2ª parte:


    D5(9)           A7(9)/C#
E|--------0--------------------0------------
B|------3-----3-----------0----0------------
G|----2-----2---2-------0---0--0------------
D|--0-----------------2--------2------------
A|------------------4----------4------------
E|------------------------------------------



3ª parte:


   C                  G/B
E|-----------0--------------3---------------
B|-------1----------------0-----------------
G|-----0-----------0----0-----0-----0-----0-
D|---2-----2---0h2----------------0-----0---
A|-3------------------2---------2-----------
E|------------------------------------3-----



4ª parte:


    Am            B7
E|------------0-------------2---------------
B|--------1-------------0-------------------
G|------2---2---------2---2-----------------
D|----2-------------1-----------------------
A|--0-------------2-------------------------
E|------------------------------------------



Primeira estrofe:

Mirrors on the ceiling
The pink champagne on ice, and she said
We are all just prisoners here
Of our own device
And in the master's chambers
They gathered for the feast
The stab it with their steely knives
But they just can't kill the beast

(Segunda Estrofe - repete dedilhado primeira parte)

Em
   Last thing I remember, I was
B7/D#
      Running for the door
D5(9)
      I had to find the passage back
         A7(9)/C#
To the place I was before
C
  Relax, said the night man
   G/B
We are programmed to receive
Am
   You can check out any time you like
         B7
But you can never leave

(Repete dedilhado primeira parte até o final da música)
  • 1
  • 2
  • 3
  • 4
  • 5
  • 6
  • 7
  • 8
  • 9
  • 10
  • 11
  • 12
    Acordes para:
      Composición: Don Felder / Don Henley / Glenn FreyColaboración y revision:
      • Caroline

      0 comentarios

        mostrar mas comentarios

        ¿Conseguiste tocar?

        1tocaron0aún no

        ¡Grave un vídeo tocando Hotel California y envie para nosotros!

        00:00 / 00:00
        outros vídeos desta música
        repetirqualidadeautomática
        • automática
        Outro vídeos desta música
          Capítulos
          • Início
          • Tocando a música
          • Violão 1 - Acordes da Introdução
          • Violão 1 - Tocando Introdução
          • Violão 1 - Ensinando Introdução
          • Violão 1 - Tocando Primeira Parte
          • Violão 1 - Tocando Refrão
          • Violão 3 - Ensinando Segunda Parte
          • Violão 1 - Ensinando Refrão
          • Violão 1 - Tocando Solo
          • Violão 1 - Ensinando Solo
          • Violão 1 - Tocando Solo Final
          • Violão 1 - Ensinando Solo Final
          • Violão 2 - Acordes da Introdução e Primeira Parte
          • Violão 2 - Tocando Introdução
          • Violão 2 - Ensinando Introdução
          • Violão 2 - Tocando Primeira Parte
          • Violão 2 - Ensinando Primeira Parte
          • Violão 2 - Acordes do Refrão
          • Violão 2 - Tocando Refrão
          • Violão 2 - Ensinando Refrão
          • Violão 2 - Tocando Terceira Parte
          • Violão 2 - Ensinando Terceira Parte
          • Violão 3 - Acordes da Introdução
          • Violão 3 - Tocando Introdução
          • Violão 3 - Ensinando Solo 1 da Introdução
          • Violão 3 - Ensinando Solo 2 da Introdução
          • Violão 3 - Ensinando Dedilhado da Introdução
          • Violão 3 - Ensinando Solo 3 da Introdução
          • Violão 3 - Tocando Primeira Parte
          • Violão 3 - Ensinando Primeira Parte
          • Violão 3 - Tocando Primeiro Refrão
          • Violão 3 - Ensinando Refrão
          • Violão 3 - Tocando Segunda Parte
          • Violão 3 - Tocando Segundo Refrão
          • Violão 3 - Ensinando Segundo Refrão
          • Violão 3 - Tocando Terceira Parte
          • Violão 3 - Ensinando Terceira Parte
          • Violão 3 - Tocando Solo
          • Violão 3 - Ensinando Solo 4
          • Violão 3 - Acordes da Base do Solo do Violão 1
          • Violão 3 - Tocando Base do Solo
          • Violão 3 - Ensinando Base do Solo
          • Violão 3 - Tocando Solo Final
          • Violão 3 - Ensinando Solo Final
          • Encerramento
          00:00 / 00:00
          automática
          • automática
          cerrarplay/pause subir/bajar velocidad
            Acordes para:guitarra
            acordes
            cerrar
            OK