247 Intro

The Expendables

Tom: A
Wow
whoever posted the other 247 tab was TOTALLY wrong
this is the real way to play it

Regular Tuning

-------------------------------------------------|
-------------------------------------------------|
--------------------9----------------------------|
------6h7p6---6-7/9---9-7-7-7-6------------------|
--7-7-------7-------------------7-7-9-9-9-6------|
--------------------------------------------7-7--|

------------------------------------------------------|
------------------------------------------------------|
--------------------9---------------------------------|
------6h7p6---6-7/9---9-7-7-7-6-----------------------| Repeat from beginning
--7-7-------7-------------------7-7-9-9-9-7-6h7p6---6-|
--------------------------------------------------7---|

By ear,by antone
Página 1 / 1

Letras y titulo
Acordes y artista

restablecer los ajustes
OK