Die For You

The Expendables

tono: A
this is tabed by frodo this is a sicker but slower expendabels song
and yes this is the version on gettin filthy
intro
e|-----------------|x2
b|-----------1---3-|
g|----0-----0---0--|
d|--2--2-0-2---4---|
a|-2-2--2-3---5----|
e|0----------------|

Intro solo
e|-----------------------10-10/12-12-12-14-14>12-14-14-----12-----10---------|
b|-----8-10>10-8/10---7-8--8-------------------------------------------------|
g|7-8-9-9----------9-9--------------------------------16\14--14\12--12/11\12-|
d|---------------------------------------------------------------------------|
a|---------------------------------------------------------------------------|
e|---------------------------------------------------------------------------|

e|----10-10/12--12/14--14/15--15~-|
b|-7-8--8-----11-----12-----12----|
g|9-------------------------------|
d|--------------------------------|
a|--------------------------------|
e|--------------------------------|

chorus
e|---------------------|
b|---0----0---------0--|
g|--2-2--2-2---0---0-0-|
d|-2----2-----0-0-4----|
a|0----3-----4---5-----|
e|----------5----------|

Chours 2
e|--------------------------------0-0-0-0-0-0-0-0-|
b|--------------------------------1-1-1-1-3-3-3-3-|
g|0-0-0-0-0-0-0-0-0-0-0-0-0-0-0-0-0-0-0-0-0-0-0-0-|
d|2-2-2-2-2-2-2-2-0-0-0-0-2-2-2-2-2-2-2-2-4-4-4-4-|
a|2-2-2-2-3-3-3-3-4-4-4-4-2-2-2-2-3-3-3-3-5-5-5-5-|
e|0-0-0-0-0-0-0-0-5-5-5-5-0-0-0-0-0-0-0-0-0-0-0-0-|
Página 1 / 1

Letras y titulo
Acordes y artista

restablecer los ajustes
OK