Strive

The Expendables

Tom: C
Album: No Time to Worry

Tuning: Standard

eI-------------------I
BI-----------10-8-7--I   x11    
GI-------7-----------I
DI---7/9-------------I
AI-------------------I
EI-------------------I  


eI----------------------------I
BI-----------10-8-7-8-7---7~--I
GI-------7--------------9-----I
DI---7/9----------------------I
AI----------------------------I
EI----------------------------I

e|----------------------------------|
B|----------------------------------|
G|-7--6-6h7p6-----7--7--9-7---------|
D|-----------9---9--9---------------|
A|----------------------------------|
E|----------------------------------|




Verse- These Chords are played pretty much the whole time, listen for the rhythm and what not.

e|-5-----5-----3-----|
B|-7-----5-----3-----|
G|-7-----6-----4-----|
D|-7-----7-----5-----|
A|-5-----7-----5-----|
E|-5-----5-----3-----|
Página 1 / 1

Letras y titulo
Acordes y artista

restablecer los ajustes
OK