Cifra Club

Flowers In Your Hair

The Lumineers

Tablatura: Principal (guitarra)
Tom: G
G
E|--3------3-------3------3-----------------|
B|--3------3-------3------3-----------------|
G|--0------0-------0------0-----------------|
D|------------0h2---------------------------|  
A|-----0h2------------0h2-------------------|
E|3-----------------------------------------|

C9
E|---3--------3--------3------3--------------|
B|---3--------3--------3------3--------------|
G|---0--------0---0h2---------0--------------|
D|------0h2---------------0h2----------------| 
A|3------------------------------------------|
E|-------------------------------------------|

G
When we were younger
We thought everyone was on our side
Then we grew a little
                    C9
And romanticized the time I saw
                     G
Flowers in your hair
        D
Takes a boy to live
      C9                          G
Takes a man to pretend he was there

G
So then we grew a little
Knew a lot
And now we demonstrated it to the cops
             C9
And all the things we said
                    G
We were self assured
        D
It's a long road to wisdom
       C9                       G
It's a short one to being ignored

         Em  D
Be in my eye
             G
Be in my heart
         Em          D
By in my eye, eyeyeye
             G
Be in my heart

G
So now I think that I could love you back
And I hope its not too late
'Cause youre so attractive
       Cadd9
And the way you move
                     G
I won't close my eyes
         D
Takes a man to live
        Cadd9                       G
Takes a woman to make him compromise

         Em  D
Be in my eye
             G
Be in my heart
         Em          D
By in my eye, eyeyeye
             G
Be in my heart

reproducciones 1.129
Acordes para:
    Composição: Jeremy Fraites / Wesley Keith Schultz Colaboración y revision:
    • Guilherme Romão
    • Luiz Brito

    0 comentarios

    mostrar más comentarios

    ¿Conseguiste tocar?

    8 tocaron 0 aún no

    ¡Graba un vídeo tocando Flowers In Your Hair y envianoslo!

    00:00 / 00:00
    outros vídeos desta música
    repetir qualidade Automático
    Outros vídeos desta música
    00:00 / 00:00
    Automático
    OK