Break A Leg

The Spill Canvas

tono: C
Break a Leg
One Fell Swoop
Db Ab Db Gb Bb eb
Tabbed By: JJ Murphy


It's missing a few parts, but its pretty solid for the most of it.


intro

Guitar 1
|------------------------------------------------------|
|------------------------------------------------------|
|---10-9-7-9---9-9-10-7-9---10-9-7-9---9-9-10-7-9-9-10-|
|-7-x--x-x-x---x-x-x--x-x-7-x--x-x-x---x-x-x--x-x-x-x--|
|-7-8--7-5-7---7-7-7--5-7-7-8--7-5-7---7-7-7--5-7-7-8--|
|-7-----------------------7----------------------------|

Guitar 2
|----|
|----|
|-10-|
|-x--|
|-8--|
|----|


verse

|---------------           -------------|      ---------|
|---------------           -------------|      ---------|
|-10-10---10-10-  x11      -10-10--9-10-|      ---------|
|-x--x----x--x--           --x--x--x-x--| Or   -8-8-0-8-|
|-8--8----8--8--           --8--8--7-8--|      -8-8-0-8-|
|---------------           -------------|      -8-8-0-8-|

                           There's too much noise for me to hear 
                           whats going on, and                                        

                           my guitar doesnt have any distortion

transition lick (:51)
|----------   ----------------
|----------   ----------------
|-9-10-----   -9h10p9h10p9----
|------7-7-   ------------7-7-
|----------   ----------------
|----------   ----------------

Chorus
|---------------------|
|---------------------|
|-10-10-9-9--7-7--9-9-|
|-x--x--x-x--x-x--x-x-|
|-8--8--7-7--5-5--7-7-|
|---------------------|

repeat!


"Not Even Hell..."

|----------------------------------------|
|----------------------------------------|
|----------------------------------------|   repeat
|-7-7--7-7--7-7--7-7--7-7--7-7--7-7--0-0-|
|-7-7--7-7--7-7--7-7--7-7--7-7--7-7--0-0-|
|-7-7--7-7--7-7--7-7--7-7--7-7--7-7--0-0-|

Página 1 / 1

Letras y titulo
Acordes y artista

restablecer los ajustes
OK