Cifra Club

15 Minutes of Pain

The Strokes

Tablatura: Principal (guitarra)
Tom: D
Intro: 
E|--------------|
B|--7~----------|
G|--7~----------|
D|--------------|
A|--------------|
E|---------5~---|

   D           Bm       A
I was all just a dream, Oh no 
     G          A7                   
The worst it was real 
    D            Bm                  A
All my pets they were there and they smiled 
     G            A7
Take a seat it looks fine 

dedilhado:

e|-10----------------10----------------|-7-----------7-----------|
B|----10----------10----10----------10-|---7-------7---7-------7-|
G|-------11----11----------11----11----|-----7---7-------7---7---|
D|----------12----------------12-------|-------9-----------9-----|
A|-------------------------------------|-------------------------|
E|-------------------------------------|-------------------------|

e|-9--------------9--------------|-9----------------9-------------------|
B|---10--------10---10--------10-|---10----------10---10----------10----|
G|------9----9---------9----9----|------12----12---------12----12-------|
D|--------11-------------11------|---------11---------------11----------|
A|-------------------------------|--------------------------------------|
E|-------------------------------|--------------------------------------|

e|---------------------------|-------------------------|
B|---------------------------|-------------------------|
G|---------------------------|-------------------------|
D|-2------2-2-2-2------------|-------------------------|
A|-3------3-3-3-3---2----0---|-2-----2-2-2-2-----------|
E|---------------------------|-3-----3-3-3-3---2---0---|

e|-------------------------------------|-------------------------|
B|-------------------------------------|-------------------------|
G|-------------------------------------|-------------------------|
D|--4--------4--4--4--5-----5-----4----|-7-----7-7-7-5---5---5---|
A|--5--------5--5--5--5-----5-----5----|-5-----5-5-5-5---5---5---|
E|--5--------5--5--5--5-----5-----5----|-7-----7-7-7-7---7---7---|

D              E7
Everybody so inviting 
E7                    A
They got it in for me I know 
                             E7
It's not that I don't really love you 
                             A
It's just that I don't really know 
                                 E7
The hateful things you think you want to say 
                         A7
Time will turn them into jokes - yeah 

          D          Bm        A
If it was all just a dream, Oh no
       G               A7
Was it real? I don't know ( I hope so) 

   D             Bm            A
If it was you were on there with me 
   G               A
Overjoyed in a peach 

D                 Bm             A
Here we go. Can I play? Can I watch? 
C9               G               D
He would like one more night in your life 
D                 Bm                A
I saw the worlds, they don't stop, they're like us
C9                 G                D
They go fast, like a Sun that's been shot

                    A        (toque mais rápido, e faça pestana aqui) 
Everybody at the party            
                        D
Shouldn't worry if I'm there
        D                 A
Cause today they'll talk about us 
                          D
And tomorrow they won't careeeeeeeee

D Bm A

"03:25

e|--------22-55-33-22-55-00-33-777-999-8888-7-5-3--33-22-0---|
B|-33-55-----------------------------------------------------|
G|---------------------------------------------------------2-|
D|-----------------------------------------------------------|
A|-----------------------------------------------------------|
E|-----------------------------------------------------------|

D
This whole life,
Bm                      A7 
Is it a dream? I can't tell 


C9         G                  D
I got up then I waved, then I fell 
D               Bm               A
I recall, you were all there with me
D                Bm A
Overjoyed and at peace

G
First time around 
C
Second took so long 
F
Third time's a charm 
Bb
Circle of fourths 
Eb
Five days to rehearse 
G#
Six to make it work 
C#
Seven notes in a scale 
F#
Eight in some countries 
B
Nine in fancy keys
E
Ten years we've been friends
A
Eleven seconds to hell 
D             G
And of course twelve major chords
reproducciones 292
Acordes para:
    Composição: Julian Casablanca Colaboración y revision:
    • Lui
    • Daiane Baroni

    0 comentarios

    mostrar más comentarios

    ¿Conseguiste tocar?

    0 tocaron 0 aún no

    ¡Graba un vídeo tocando 15 Minutes of Pain y envianoslo!

    00:00 / 00:00
    outros vídeos desta música
    repetir qualidade Automático
    Outros vídeos desta música
    00:00 / 00:00
    Automático
    OK