Bad Habits

Thin Lizzy

Composição: Phil Lynott / Scott Gorham
Tom: E
Verse
e------------------------------|
B-------------------2-x-x-6--4-|
G-------------------2-x-x-6--4-|
D-2-x-x-2-x-x-2-x-x-2-x-x-6--4-|
A-2-x-x-2-x-x-2-x-x-0-x-x-4--2-|
E-0-x-x-0-x-x-0-x-x------------|

Chorus

e---------------------|
B---------9-9-7-------|
G---------------6-9---|
D-2-x-x-2-----------9-|
A-2-x-x-2-------------|
E-0-x-x-0-------------|x3

e---------------------|
B-----------7-9-7---7-|
G-7-----7-9-------9---|
D-7-x-x-7-------------|
A-5-x-x-5-------------|
E-0-x-x-0-------------|x1

Bridge
e-----------|
B-----------|
G-7---12-10-|
D-7---12-10-|
A-5---10-8--|
E-----------|

E----12-------------------------------------|
B-12----14-12-------------------------------|
G-------------13-11-------------------------|
D-------------------14-11-------------------|
A-------------------------14-11-------11-14-|
E-------------------------------14-12-------|

E----12-------------------------------------|
B-12----14-12-------------------------------|
G-------------13-11-------------------------|
D-------------------14-11-------------------|
A-------------------------14-11-------11----|
E-------------------------------14-12----12-|

E----12-------------------------------------|
B-12----14-12-------------------------------|
G-------------13-11-------------------------|
D-------------------14-11-------------------|
A-------------------------14-11-------11-14-|
E-------------------------------14-12-------|
Página 1 / 1

Letras y titulo
Acordes y artista

restablecer los ajustes
OK