Chinatown Intro

Thin Lizzy

Tom: C
--------------------------------------- 
----------5--5-----7---------5-5-----7-
--0-0-5h7------7-0---0-0-5h7-----7-0---


---------------------------------------
--------------------------------------- 
---------------------------------------
----------5--5-----7---------5-5-----7-
--0-0-5h7------7-0---0-0-5h7-----7-0---
---------------------------------------

send me an email at *
Página 1 / 1

Letras y titulo
Acordes y artista

restablecer los ajustes
OK