Dancing In The Moonlight Solo

Thin Lizzy

Tom: C
#This file is the author's own work and represents their interpretation of the#
#song. You may only use this file for private study, scholarship, or research.#


Album: Solider of Fortune
Transcribed by: Geoff Lea
Email: G*

------------------------------------------------------------------------------
-15b17-15b17r15-12--15b17-15b17r15-12-15b1715-12------------------------------
-------------------------------------------------------12-12--14-12-14b16r14--
---------------------------------------------------14-------------------------
------------------------------------------------------------------------------
------------------------------------------------------------------------------
                                                                              

-------------------------------------15-----12---10----------------10--12-----
-----------------------------------------------------13---12---13-------------
-12-14b16----------12------14-12-----12-----9----7-----------------7---9------
-------------12-14-----14----------------------------10---9----10-------------
------------------------------------------------------------------------------
------------------------------------------------------------------------------
                                                                              

----------12-15-12----12-----------------12-15-12----12----------------12-15--
-------12----------15----15-12--------12----------15----15-12-------12--------
-14b16--------------------------14b16-------------------------14b16-----------
------------------------------------------------------------------------------
------------------------------------------------------------------------------
------------------------------------------------------------------------------
                                                                              

-12----------------12-15-12----12---------------------------------------------
----15-12-------12----------15----15-12---------------------------------------
----------14b16-------------------------14-12----14-12------------------------
----------------------------------------------14-------14-12--------------14--
-------------------------------------------------------------14-12-10---------
------------------------------------------------------------------------------
                                                                              

-----------------------------------------------17b19-r-17-15-17-15-\----------
------------------15-12-------12-15b17-15-12-------------------------\--------
-12-14-12----12-----------14-------------------------------------------\------
-------------------------------------------------------------------------\----
------------------------------------------------------------------------------
------------------------------------------------------------------------------
Página 1 / 1

Letras y titulo
Acordes y artista

restablecer los ajustes
OK