Dear Miss Lonely Hearts

Thin Lizzy

Composição: Jimmy Bain / Phil Lynott
Tom: G
One of Philos slol songs. Lizzy rock!!!

Intro
|------------------------|
|------------------------|
|-7-7---4-4--------------|
|-7-7---4-4---5-5---7-7--|
|-5-5---2-2---5-5---7-7--|
|-------------3-3---5-5--|

The verse is the exact same but you keep the power chords going. Listen to the track.
oh yeah it's palm muted in the verse.

The chorus is the exact same as the verse.

Now the solo. Im pickin up the guitar now to figure it out....

Right. Think I got it
|------------------------------------------------------------------------|
|----------12-15-12---------------12-15-12--------------7----------------|
|-12-13-15---------14-12----14-15----------14-12----7-9---9-7------------|
|-------------------------12----------------------9-----------9-9--5-7-9-|
|------------------------------------------------------------------3-5-7-|
|------------------------------------------------------------------------|
Thats it. I know its crap but its near snough. BoBo
Página 1 / 1

Letras y titulo
Acordes y artista

restablecer los ajustes
OK