Fools Gold

Thin Lizzy

Composição: Phil Lynott
Tom: E
Tabbed by:Jim Myers
Email:*

Tuning:EADGBE
                      INTRO
e|--------------------------------------7---9---11---9---7-------------------|
B|----------------------------------------------------------9---7---5---7--9-|
G|------4---6--6/8--9---8---6--4---------------------------------------------|
D|--6-----------------------------6------------------------------------------|
A|---------------------------------------------------------------------------|
E|---------------------------------------------------------------------------|

e|---------------------------------------------------------------------------|
B|-7--5-------------4--5---4-------------------------------------------------|
G|--------6----6---------------6---4-------4---6-----------------------------|
D|-------------------------------------6-------------------------------------|
A|---------------------------------------------------------------------------|
E|---------------------------------------------------------------------------|
                      Intro Chords also used in Verse
e|--------------4--------------------4---------------------------------------|
B|---------2----5--4-------------2---5---------------------------------------|
G|--1--1---2----6--4------1--1---2---6---4-----------------------------------|
D|--2--2---2----6--4------2--2---2---6---4---------2X------------------------|
A|--2--2---0-------2------2--2---0-------4-----------------------------------|
E|--0--0------------------0--0-----------2-----------------------------------|
                        Chorus
e|----------------------------------------------------------------------------|
B|-------2----5--5--5---4--4--2-2-----------------2---5--5--5---4-4-4---2---2-|
G|-1-----2---------------------------4-4-----1----2---------------------------|
D -2-----2-----------------------------------2----2---------------------------|
A|-2-----0-----------------------------------2----0---------------------------|
E|-0-----------------------------------------0--------------------------------|
Página 1 / 1

Letras y titulo
Acordes y artista

restablecer los ajustes
OK