Rocker Intro

Thin Lizzy

Tom: G
Tabbed by: Peter Scholl
Email: *
Tuning: standard

overdriven guitar
|----|-------------------|-------------------------------|
|----|-14---14--14-14----|-15-15--15-15-14h-15--15-15----|
|-7-/|-14---14--14-14-14-|-14-14--14-14-14-(14)-14-14----|
|-7-/|-14---14--14-14-12-|-12-12--12-12-12-(12)-12-12-12-|
|----|-------------------|-------------------------------|
|----|-------------------|-------------------------------|
      |   |    |    |      |         |      |      | 

|-------------------|-------------------------------|
|-14---14--14-14----|-15-15--15-15-14h-15--15-15----|
|-14---14--14-14-14-|-14-14--14-14-14-(14)-14-14----|
|-14---14--14-14-12-|-12-12--12-12-12-(12)-12-12----|
|-------------------|----------------------------12-|
|-------------------|-------------------------------|
  |  |    |   |       |         |      |      |  

  
||------------------|--------------------|-------------5---|-------------------||
||o-----------------|--------------------|-----------5-5---|------------------o||
||--6--7-5/6--------|-5------4-(4)-------|-6---7-5/6-6-6-7-|-5-----4-(4)-------||
||--7--7-7-7-7--x-x-|-5--5---5-(5)-------|-7-7-7-7-7-----7-|-5-5---5-(5)-------||
||o-7--------7\-----|-7--5-5-5-(5)-5-5s7-|-7---------------|-7-5-5-5-(5)-5-5s7o||
||------------------|------3-3-(3)-3-3-5-|-----------------|-----3-3-(3)-3-3-5-||
   |   |   |    |    |    |    |     |    |    |   |   |     |   |   |     |

/ = slide
o
  = repeat section between these symbols
0
numbers in brackets are tied notes

This took me quite a long time, so please rate/comment!
Página 1 / 1

Letras y titulo
Acordes y artista

restablecer los ajustes
OK