Rocker

Thin Lizzy

Composição: Brian Downey / Eric Bell / Phil Lynott
Tom: G
Intro
e--------------------------------------------------------------------------|
B-/14-14-14-14-14-14-15-15-15-14-14-14-14-15-14-14-14-14-15-15-15-14-14-14-|
G-/14-14-14-14-14-14-14-14-14-14-14-14-14-14-14-14-14-14-14-14-14-14-14-14-|
D-/14-14-14-14-14-14-16-16-16-14-14-14-14-16-14-14-14-14-16-16-16-14-14-14-|
A--------------------------------------------------------------------------|
E--------------------------------------------------------------------------|

Chorus
e-5-----------3-|
B-5-7-5s6-5-5-3-|
G-6-7-5s6-6-5-4-|
D-7-7-5s6-7-5-5-|
A-7-----------5-|
E-5-----------3-|repeat as necessary

Verse
e-3----5-|
B-3----5-|
G-4----6-|
D-5----7-|
A-5----7-|
E-3----5-|repeat as necessary
Página 1 / 1

Letras y titulo
Acordes y artista

restablecer los ajustes
OK