Rosalie

Thin Lizzy

Composição: Bob Seger
Tom: C
Intro


------------------------------------------------------------------------|
---22----332----22----33332----22----332----2----33332------------------|
---22----222----22----22222----22----222----2----22222------------------|
---22----442----22----44442----22----442----2----44442------------------|
------------------------------------------------------------------------|
------------------------------------------------------------------------|

verse; same but muted


chorus
------------------------|
------------------------|
------------------------|
------------------------|
------------------------|
-------55-420----55-420-|


bridge

A...E...A...E...A...E

AA EEE AA EEE

Guitar 2; ------------------------------------------------------------------|
          ---15-15-161615-15-15-1616161615----------------------------------|
          ---15-15-151515-15-15-1515151515----------------------------------|
          ---15-15-171715-15-15-1717171715----------------------------------|
Página 1 / 1

Letras y titulo
Acordes y artista

restablecer los ajustes
OK