Sarah Intro

Thin Lizzy

Tom: D
Standard Tuning

   C#
E---9--10--12--10--9------------10--9----------------------------|
B---------------------10----10---------10------10--12------------|
G------------------------------------------11--------------------|
D----------------------------------------------------------------|
A----------------------------------------------------------------|
E----------------------------------------------------------------|


E---9--10--12--10--9------------10--9----------------------------|
B---------------------10----10---------10--------10--------------|
G------------------------------------------10/11-----11----------|
D--------------------------------------------------------7/9-----|
A----------------------------------------------------------------|
E----------------------------------------------------------------|
 
Reapeat that.
Página 1 / 1

Letras y titulo
Acordes y artista

restablecer los ajustes
OK