Sun Goes Down

Thin Lizzy

Composição: Darren Wharton / Phil Lynott
Tom: F#
Album:  Thunder and Lightning
Lyrics: none

Tuning: EADGBe (normal)

Hey. 
This is my 1st tab, the song is quite easy to play. But any problems or corrections
email me at *.


Intro/Verse:

e||------------11--|------------11--|------------7--|------------11--||
B||--11--9-----11--|--11--9-----11--|--11--9-----7--|--11--9-----11--||
G||--11--10----11--|--11--10----11--|--11--10----8--|--11--10----11--||
D||--13--11----13--|--13--11----13--|--13--11----9--|--13--11----13--||
A||----------------|----------------|---------------|----------------||
E||----------------|----------------|---------------|----------------||

Chorus:

e||-------------------|--8-----6----8---|--7----6--||
B||--7----7--9-----7--|--9-----7----9---|--7----6--||
G||--6----6--10----6--|--10----6----10--|--8----6--||
D||--8----8--11----8--|-----------------|--9----8--||
A||----------11-------|-----------------|----------||
E||-------------------|-----------------|----------||


Intro/verse x2
Chorus x1
Intro/verse x3 (first once while singing "the sun goes down, 
Chorus x1       and then twice while soloing)
Intro/verse x3
Página 1 / 1

Letras y titulo
Acordes y artista

restablecer los ajustes
OK