Cifra Club

Hoy vivo por tí

Tierra Santa

Cifrado: Principal (guitarra y guitarra eléctrica)
tono: F#m
E|-------|-------|-------|-------|-------|
B|-------|-------|-------|-------|-------|
G|-------|-------|-------|-------|-------|
D|-------|-------|---7---|-------|---6---|
A|---4---|---2---|---5---|---7---|---4---|
E|---2---|---0---|-------|---5---|-------|

E|---------------------------------------------------------|
B|---------------------------------------------------------|
G|---------------------------------------------------------|
D|---------------------------------------------------------|
A|-4----4----4----4----4-------2----2----2----2----2-------|
E|-2-22-2-22-2-22-2-22-2-222---0-00-0-00-0-00-0-00-0-000---|
     --   --   --   --   ---     --   --   --   --   ---    pm

E|---------------------------------------|
B|---------------------------------------|
G|---------------------------------------|
D|-7----7----7----7----7-------------6---|
A|-5-55-5-55-5-55-5-55-5-555---7-----4---|
E|-----------------------------5---------|
     --   --   --   --   ---              pm

  ¿Alguien sabe porque muere inocente esta vida?
E|---------------------------------------------------|
B|---------------------------------------------------|
G|---------------------------------------------------|
D|---------------------------------------------------|
A|-----------------4---------------------------------|
E|-----------------2---------------------------------|

  es que a muerto el amor, es que no hay compasion
  o es que Dios se a olvidado de ti
E|-----------------------------------|
B|---------------------------4-------|
G|----------------6--------6---------|
D|-----------------------------------|
A|-------------5-------4-------------|
E|-----------------------------------| (sin distorcion)

  ¿Alguien sabe porque...     existe tal injusticia?
E|------------------------------|
B|--------------------2---------|
G|-----------------------2------|
D|-----------------4-------4----|
A|------------------------------|
E|------------------------------| (sin distorcion)

  que alimenta el dolor destruyendo el valor
  que deja un niño al morir
E|-----------------------------------|
B|---------------------------4-------|
G|----------------6--------6---------|
D|-----------------------------------|
A|-------------5-------4-------------|
E|-----------------------------------| (sin distorcion)

  Quiero verle jugar...    ser un niño feliz
E|-------------------------------------------|
B|-------------------------------------------|
G|-------------------------------------------|
D|-------------------------------------------|
A|------------444----------------------444---|
E|------------222----------------------222---|

  poder su voz escuchar
E|-----------------------|
B|-----------------------|
G|-----------------------|
D|---2---------------4---|
A|---0---------------2---|
E|-----------------------|

   Quiero verle correr...    quiero oirle gritar
E|---------------------------------------------|
B|---------------------------------------------|
G|---------------------------------------------|
D|---------------------------------------------|
A|------------444-----------------------444----|
E|------------222-----------------------222----|

  que pueda volver a soñar
E|--------------------------|
B|--------------------------|
G|--------------------------|
D|---------------------6----|
A|-----7---------------4----|
E|-----5--------------------|


(CORO X2)

   Hoy vivo por ti     tu debes vivir
E|---------------------------------------------------------|
B|---------------------------------------------------------|
G|---------------------------------------------------------|
D|---------------------------------------------------------|
A|-4----4----4----4----4-------2----2----2----2----2-------|
E|-2-22-2-22-2-22-2-22-2-222---0-00-0-00-0-00-0-00-0-000---|
     --   --   --   --   ---     --   --   --   --   ---    pm

   Hoy quiero luchar   hasta que vuelvas de nuevo a reir
E|---------------------------------------|
B|---------------------------------------|
G|---------------------------------------|
D|-7----7----7----7----7-------------6---|
A|-5-55-5-55-5-55-5-55-5-555---7-----4---|
E|-----------------------------5---------|
     --   --   --   --   ---              pm


(G  O)

E|--------12----------------------12-----------|
B|----------16-15-------------------16-15-15---|
G|---/14---------14----------/14---------------|
D|---------------------------------------------|
A|---------------------------------------------|
E|---------------------------------------------|

E|-------12---------------------------------------------|
B|---------16-15-13-15-15---------------14-15-14---14---|
G|---/14------------------------13-14-16--------16------|
D|----------------------------16------------------------|
A|------------------------------------------------------|
E|------------------------------------------------------|

E|---------------21b-21b-21b-19-17-----------------------------|
B|--------------------------------20-----17-15-14---14-15-14---|
G|-----21-19-18-----------------------------------16-----------|
D|---19--------------------------------------------------------|
A|-------------------------------------------------------------|
E|-------------------------------------------------------------|

E|------------------------14-16-17-16-14-16----14-13---|
B|------17b(19)-17-------------------------------------|
G|---14---------------/14------------------------------|
D|-----------------------------------------------------|
A|-----------------------------------------------------|
E|-----------------------------------------------------|

 (Se toca lo mismo que el inicio)

Que niño puede vivir con la esperanza dormida
Sin el calor del hogar ni madre a la que abrazar
Esperando que llegue su fin
Dime cual es su maldad, con que delito a nacido
Que precio debe pagar si es nuestra culpa olvidar
Que un dia tambien fuimos niños

Quiero verle jugar, ser un niño feliz
Poder su voz escuchar
Quiero verle correr, quiero oirle gritar
Que pueda volver a soñar

Hoy vivo por ti, tu debes vivir
Hoy quiero luchar
Hasta que vuelvas de nuevo a rerir.
Composición de Tierra Santa
    • ½ Tono
    • Am
    • Bbm
    • Bm
    • Cm
    • C#m
    • Dm
    • Ebm
    • Em
    • Fm
    • F#m
    • Gm
    • G#m
  • Agregar a la lista

    0 comentarios

    Ver todos los comentarios

    ¿Lograste tocar?

    0 Tocaron 0 Aún no

    ¡Graba un video tocando Hoy vivo por tí y envíanoslo!

    00:00 / 00:00
    Outros vídeos desta música
    Repetir Calidad Automático
    Outros vídeos desta música
    00:00 / 00:00
    Automático
    OK