Cifra Club

Pro Dia Nascer Feliz

Titãs

Tablatura: Principal (guitarra)
Tom: D
INTRO: D5 G5 D5 G5 D5 G5 F5 A5 (a base entra depois de dois solos da introdução).

(SOLO DE INTRODUÇÃO) REPETE 7 VEZES
--------------------------------------------------------------------------------- E
---15----15---15-------13----13----13----15-------------------------------------- B
---14----14---14-------14----14----14----14-------------------------------------- G
--------------------------------------------------------------------------------- D
--------------------------------------------------------------------------------- A
--------------------------------------------------------------------------------- E


--------------------------------------------------------------------------------- E
---13---13---13--------10----10----10-----12----12------------------------------- B
---12---12---12--------12----12----12-----12----12------------------------------- G
--------------------------------------------------------------------------------- D
--------------------------------------------------------------------------------- A
--------------------------------------------------------------------------------- E
A5
Todo dia a insônia me convence que o céu,faz tudo ficar infinito.

E que a solidão é pretensão de quem fica escondido fazendo fita.
G5                             F5         G5                         F5
Todo dia tem a hora da sessão coruja,é...  só entende quem namora.

                                          A5
Agora "vão borá", estamos meu bem por um triz
      G5        D5    G5                  D5    G5             D5
Pro dia nascer feliz,   pro dia nascer feliz e o mundo inteiro acordar
           F5        A5
E a gente dormir, dormir
       G5         D5  G5                    D5    G5
Pro dia nascer feliz,   Essa é a vida que eu quis , o mundo inteiro 
D5                    F5       A5
acordar  e a gente dormir......ir....
A5
Todo dia é dia e tudo em nome do amor, ah! Essa é a vida que eu quis.
Procurando vaga uma hora aqui, a outra ali, no vai e vem dos teus quadris.

G5               F5        G5              F5
Nadando contra a corrente, só pra exercitar...
G5                 F5                            A5
Todo o músculo que sente... me dê presente o teu bis
     G5             D5 G5                 D5
Pro dia nascer feliz,    pro dia nascer feliz
G5                 D5                  F5      A5
O  mundo inteiro acordar e a gente dormir, dormir
     G5            D5   G5                  D5
Pro dia nascer feliz, é!   Pro dia nascer feliz


G5                   D5             F5          A5
E o mundo inteiro acordar e a gente dormir, dormir.

Repete a intro

G5                F5      G5              F5
Nadando contra a corrente,  só pra exercitar...
G5                  F5                           A5
Todo o músculo que sente... me dê presente o teu bis
         G5       D5  G5                    D5
Pro dia nascer feliz,   pro dia nascer feliz
G5                   D5            F5         A5
O  mundo inteiro acordar e a gente dormir, dormir
     G5            D5   G5                     D5
Pro dia nascer feliz, é!  Essa é a vida que eu quis

    G5               D5                F5          A5
E o mundo inteiro acordar e a gente dormir.........ir......


(A5)
Na,na,na,na
Na,na,na,na,na  x2
Oh,oh,oh,oh
Oh,oh,oh,oh
Oh,oh,oh,oh
Oh,oh,oh,oh
Oh,oh,oh,oh
Oh oh oh oh...
reproducciones 31
Acordes para:
    Composição: Cazuza Colaboración y revision:
    • Julier

    0 comentarios

    mostrar más comentarios

    ¿Conseguiste tocar?

    0 tocaron 1 aún no

    ¡Graba un vídeo tocando Pro Dia Nascer Feliz y envianoslo!

    00:00 / 00:00
    outros vídeos desta música
    repetir qualidade Automático
    Outros vídeos desta música
    00:00 / 00:00
    Automático
    OK