Golden Showers In The Golden State

Tom DeLonge

Composición de: Tom DeLonge
tono: B
Intro 1:

E|---------------------------------  |
B|---------------------------------  |
G|---------------------------------  |
D|-------9-9-9---------------------  |    (4x) 
A|-6-6-6-------6-6-6-7-7-7-9-9-7-7-  |
E|---------------------------------  |
Pm    

Intro 2:

Guitarra 1 
E|-------------------------------------------------------------------------  |
B|-4-0-0-0-5~--0-0-2-0-0-0-2-0-0-0-4-0-0-0-5~--0-0-2--0--0--0--2--0--0--0--  |
G|-------------------------------------------------------------------------  |
D|-------------------------------------------------------------------------  |
A|-------------------------------------------------------------------------  |
E|-------------------------------------------------------------------------  |
                                                                             |
Guitarra 2                                                                     (2x)
E|-------------------------------------------------------------------------  |
B|-------------------------------------------------------------------------  |
G|---------------------------------9-9-9-9-9-9-9-9-11-11-11-11-11-11-11-11-  |
D|-9-9-9-9-9-9-9-9-9-9-9-9-9-9-9-9-9-9-9-9-9-9-9-9-11-11-11-11-11-11-11-11-  |
A|-9-9-9-9-9-9-9-9-9-9-9-9-9-9-9-9-7-7-7-7-7-7-7-7-9--9--9--9--9--9--9--9--  |
E|-7-7-7-7-7-7-7-7-7-7-7-7-7-7-7-7-----------------------------------------  |

verso:                                                                    
E|-------------------------------------------------------------------------  |
B|-------------------------------------------------------------------------  |
G|---------------------------------9-9-9-9-9-9-9-9-11-11-11-11-11-11-11-11-  |
D|-9-9-9-9-9-9-9-9-9-9-9-9-9-9-9-9-9-9-9-9-9-9-9-9-11-11-11-11-11-11-11-11-  | (2x)
A|-9-9-9-9-9-9-9-9-9-9-9-9-9-9-9-9-7-7-7-7-7-7-7-7-9--9--9--9--9--9--9--9--  |
E|-7-7-7-7-7-7-7-7-7-7-7-7-7-7-7-7-----------------------------------------  |

Refrão:
E|---------------------------  |
B|---------------------------  |
G|----------------9-9-11-11--  |
D|-6--6--6--6-6-x-9-9-11-11--  |  (3x)
A|-6--6--6--6-6-x-7-7-9--9---  |
E|-4--4--4--4-4-x------------  |

Repete intro 2

Repete verso

Refrão 2:

E|---------------------------  |
B|---------------------------  |
G|----------------9-9-11-11--  |
D|-6--6--6--6-6-x-9-9-11-11--  |  (3x)
A|-6--6--6--6-6-x-7-7-9--9---  |
E|-4--4--4--4-4-x------------  |

E|-----------------------------------------------------------  |
B|-----------------------------------------------------------  |
G|---9-9-11-11-11-11-9-9-9-9-9-9-9-9-11-11-11-11-11-11-11-11-  |
D|---9-9-11-11-11-11-9-9-9-9-9-9-9-9-11-11-11-11-11-11-11-11-  |
A|---7-7-9--9--9--9--7-7-7-7-7-7-7-7-9--9--9--9--9--9--9--9--  |
E|-----------------------------------------------------------  |

ponte:

Guitarra 1
E|-------------------------------------------------------------------------  |
B|-------------------------------------------------------------------------  |
G|-------------------------------------------------------------------------  |
D|-------------1-1-1-------2-2-1-1-----------------------------------------  |
A|-2-2-2-4-4-4-------2-2-2---------2-2-2-2-2-4-4-4-4--1--1--1--1--2--2--2--  |
E|-------------------------------------------------------------------------  |
                                                                             |
Pm     (2x)                       
                                                                            |
Guitar 2                                                                     | 
E|-------------------------------------------------------------------------  |
B|-------------------------------------------------------------------------  |
G|---------------------------------9-9-9-9-9-9-9-9-11-11-11-11-11-11-11-11-  |
D|-9-9-9-9-9-9-9-9-9-9-9-9-9-9-9-9-9-9-9-9-9-9-9-9-11-11-11-11-11-11-11-11-  |
A|-9-9-9-9-9-9-9-9-9-9-9-9-9-9-9-9-7-7-7-7-7-7-7-7-9--9--9--9--9--9--9--9--  |
E|-7-7-7-7-7-7-7-7-7-7-7-7-7-7-7-7-----------------------------------------  |
                        
E|---------------------------------  |
B|---------------------------------  |
G|---------------------------------  |
D|-------9-9-9---------------------  | (4x) 
A|-6-6-6-------6-6-6-7-7-7-9-9-7-7-  |
E|---------------------------------  |

Pm 

Refrão 2:

E|----------------------------  |
B|----------------------------  |
G|----------------9-9-11-11---  |
D|-6--6--6--6-6-x-9-9-11-11---  |  (3x)
A|-6--6--6--6-6-x-7-7-9--9----  |
E|-4--4--4--4-4-x-------------  |

E|-----------------------------------------------------------  |
B|-----------------------------------------------------------  |
G|---9-9-11-11-11-11-9-9-9-9-9-9-9-9-11-11-11-11-11-11-11-11-  |
D|---9-9-11-11-11-11-9-9-9-9-9-9-9-9-11-11-11-11-11-11-11-11-  |
A|---7-7-9--9--9--9--7-7-7-7-7-7-7-7-9--9--9--9--9--9--9--9--  |
E|-----------------------------------------------------------  |

Intro 2:

Guitarra 1 
E|-------------------------------------------------------------------------  |
B|-4-0-0-0-5~--0-0-2-0-0-0-2-0-0-0-4-0-0-0-5~--0-0-2--0--0--0--2--0--0--0--  |
G|-------------------------------------------------------------------------  |
D|-------------------------------------------------------------------------  |
A|-------------------------------------------------------------------------  |
E|-------------------------------------------------------------------------  |
                                                                             |
Guitarra 2                                                                     (6x)
E|-------------------------------------------------------------------------  |
B|-------------------------------------------------------------------------  |
G|---------------------------------9-9-9-9-9-9-9-9-11-11-11-11-11-11-11-11-  |
D|-9-9-9-9-9-9-9-9-9-9-9-9-9-9-9-9-9-9-9-9-9-9-9-9-11-11-11-11-11-11-11-11-  |
A|-9-9-9-9-9-9-9-9-9-9-9-9-9-9-9-9-7-7-7-7-7-7-7-7-9--9--9--9--9--9--9--9--  |
E|-7-7-7-7-7-7-7-7-7-7-7-7-7-7-7-7-----------------------------------------  |

  
E|----    |
B|----    |
G|----    |
D|-9~-    |
A|-9~-    |
E|-7~-    |
Página 1 / 1

Letras y titulo
Acordes y artista

restablecer los ajustes
OK