As Moçinhas de Cidade

Tonico e Tinoco

Composición de: Tonico / Tinoco
tono: A
(pista 1)

D ||----------------------|----------------------|----------------------|
A ||--0----0----0----0----|--0-------------------|----------------------|
F#||--3----0----0----0----|--1----0--------------|--5----5----3----3----|
D ||--4----0----0----0----|--2----0----2----0----|--5----5----4----4----|
A ||--0----0----0----0----|--0----0----4----0----|--0-------------------|

----------------------|-------||----------------------|----------------------|
----------------------|------*||----------------------|----------------------|
--1----0----0----0----|-------||--3----1----0----3----|--5----3----3----1----|
--2----0----0----0----|------*||--4----2----0----4----|--5----4----4----2----|
-------0----0----0----|-------||----------------------|----------------------|

----------------------|------------------||----------------------|
----------------------|-----------------*||----------------------|
--7----7----7----8----|--7----5----3-----||--0----1----3----5----|
--7----7----7----9----|--7----5----4----*||--0----2----4----5----|
----------------------|------------------||----------------------|

----------------------|----------------------|----------------------|
----------------------|----------------------|----------------------|
--5----7----5----5----|--3----3----1----3----|--3----5----7----5----|
--5----7----5----5----|--4----4----2----4----|--4----5----7----5----|
----------------------|----------------------|----------------------|

------------------||
-----------------*||
--3----1----0-----||
--4----2----0----*||
------------------||
Página 1 / 1

Letras y titulo
Acordes y artista

restablecer los ajustes
OK