Turbilhão

Toquinho

Composición de: Toquinho
tono: A
[Intro] G#m7  Gm6  F#m7  B7  E 
        A7(13)  A7  Am  D7(4)  D7
        G#m7(5-)  Gm6  F#m7  B7
        E7  A7(9-)  Eb7M/G 

        A9(13)          A6 
E|------7---------------5-----------------|
B|------7---------------7-----------------|
G|------6---------------6-----------------|
D|------7---------------7-----------------|
A|----------------------------------------|
E|----------------------------------------|

 Bm7         Am7  D7(13)  G7M
Venha se perder
      Gm6  F#7(13)  F#7(13-)  F#m7
Nesse turbilhão
           B7(9)    E7(9)
Não se esqueça de fazer
              Em        A7(9-) D6  B7(13-)
Tudo o que pedir esse seu coração

           Em         A7(13)        D6  B7(13-)
Tem muita gente que só vive pra pensar
          Em         A7(13)       Am7  D7(13)
Existe aquele que não pensa pra viver
       G#m7(5-)        Gm6            D/F#          Bm7
Eu, por exemplo, na paixão, mesmo que tenha que sofrer
         E7(9)                        Em         A9(13)
Eu abro o jogo e o coração e deixo o meu barco correr

 Bm7         Am7  D7(13)  G7M
Venha se perder
      Gm6  F#7(13)  F#7(13-)  F#m7
Nesse turbilhão
           B7(9)    E7(9)
Não se esqueça de fazer
              Em        A7(9-) D6    B7(13-)
Tudo o que pedir esse seu coração

           Em         A7(13)        D6  B7(13-)
Tem muita gente que não quer se complicar
          Em         A7(13)       Am7  D7(13)
Existe aquele que não perde a sua fé
       G#m7(5-)        Gm6       D/F#           Bm7
Eu, por exemplo, meu amigo, pelo amor de uma mulher
         E7(9)                        Em         A6
Eu viro a cara pro perigo e seja lá o que Deus quiser

 Bm7         Am7  D7(13)  G7M
Venha se perder
      Gm6  F#7(13)  F#7(13-)  F#m7
Nesse turbilhão
           B7(9)    E7(9)
Não se esqueça de fazer
              Em        A7(9-) D
Tudo o que pedir esse seu coração

[Solo Final] Bm7  Eb7M/G  Bm  Gm6 
             Bm7  Eb7M/G  Bm  Gm6 
             Bm7  Bm 

[Tab - Solo Final]

E|------------10--9--------------------------------|
B|---7s8--7----------7h8p7-------------------7-----|
G|--------------------------9--7--7-7h9p7h9--------|
D|-------------------------------------------------|
A|-------------------------------------------------|
E|-------------------------------------------------|

E|------------10--9--------------------------------|
B|---7s8--7----------7h8p7-------------------7-----|
G|--------------------------9--7--7-7h9p7h9--------|
D|-------------------------------------------------|
A|-------------------------------------------------|
E|-------------------------------------------------|

E|-------------------------------------------------|
B|----7--------------------------------------------|
G|--------9----------------------------------------|
D|-------------9-----------------------------------|
A|-------------------------------------------------|
E|-------------------------------------------------|
Página 1 / 1

Letras y titulo
Acordes y artista

restablecer los ajustes
OK