Who Needs Love

Trippie Redd

Composición de: Angel Lopez / Trippie Redd
tono: G
[Intro] Cm  Ab  Fm  Bb

 Cm                  Cm                  Ab                  Ab 
E|-----------x---x---|-----------x---x---|-----------x---x-|-----|
B|-------4---x---x---|-------4---x---x---|-----------x---x-|---5-|
G|-----------x---x---|-----------x---x---|-------5---x---x-|-----|
D|-----5-----x---x---|-----5-----x---x---|-----------x---x-|-----|
A|---3-------x---x---|---3-------x---x---|-----6-----x---x-|--6--|
E|-----------x---x---|-----------x---x---|---4-------x---x-|-4---|

E|-X---X|
B|-X---X|
G|-X---X|
D|-X---X|
A|-X---X|
E|-X---X|

   Fm                  Fm                  Ab               Bb    
E|-----------x---x--|-----------x---x-|-----------x---x-|-------|
B|-----------x---x--|-----------x---x-|-----------x---x-|-----7-|
G|-------1---x---x--|-------1---x---x-|-------5---x---x-|-------|
D|-----------x---x--|-----------x---x-|-----------x---x-|-------|
A|-----3-----x---x--|-----3-----x---x-|-----6-----x---x-|----8--|
E|---1-------x---x--|---1-------x---x-|---4-------x---x-|-4/6---|

    Bb 
E|-X---X|
B|-X---X|
G|-X---X|
D|-X---X|
A|-X---X|
E|-X---X|
Página 1 / 1

Letras y titulo
Acordes y artista

restablecer los ajustes
OK