Good Situation

UB40

Composição: Herman Davis / Russell R. Lewis
    Album - Who You Fighting For
    Tabbed by - Mat Bean
    E-mail - *

     verse;
  G|--------------------------5-5---------|
  D|--------------------------------------|
  A|------R--3-3-5-5-3-3-----------5-3----|
  E|--1-------------------3---------------|

  G|--------------------------5-5---------|
  D|--------------------------------------|
  A|------R--3-3-5-5-3-3-----------5-3----|
  E|--1-------------------3---------------|


     chorus;
  G|------------5-5---------------------7-7---------|
  D|---------3----------------------5---------------|
  A|---3-3------------5-3-3----5-5-----------7-5-5--|
  E|------------------------------------------------|

  G|------------3-3----------------------------------|
  D|---------1--------------------------3-3----------|
  A|---1-1------------3-1-1---------1---------3-1-1--|
  E|---------------------------1-1-------------------|

  G|-------------5-5----------------------7-7--------------------------|
  D|---------3------------------------5--------------------------------|
  A|---3-3------------5-3-3-----5-5------------7-5-5----5-5-5---7-7-7--|
  E|-------------------------------------------------------------------|


          Song Structure - verse  x4
                           chorus x1
                           verse  x4
                           chorus x1
                           verse  x4
                           chorus x1
                           verse  to fade
Página 1 / 1

Letras y titulo
Acordes y artista

restablecer los ajustes
OK