Chains Chains

UFO

Composição: Pete Way / Phil Mogg
Standard Tuning

(Intro)(0.15)
G:----------|----------|----------|----------|
D:----------|----------|----------|----------|
A:--5----3--|--0----0--|--5----3--|----------|
E:----------|----------|----------|--1----3--|

G:2---------|----------|----------|----------|----------|
D:---3------|----------|----------|----------|----------|
A:------3--5|5--5--5--5|5--5--5--5|5--5--5--5|5--5--5--5|
E:----------|----------|----------|----------|----------|
                                                          
G:----------|----------|----------|----------|
D:----------|----------|----------|----------|
A:5--5--5--5|5--5--5--5|5--5--5--5|5--5--5--5|
E:----------|----------|----------|----------|

G:----------|----------|----------|----------|----------|
D:----------|----------|----------|----------|----------|
A:----------|----------|----------|----------|----------|
E:--3----5--|5--5--5--5|5--5--5--5|5--5--5--5|5--5--5--5|

G:----------|----------|----------|----------|----------|
D:----------|----------|----------|----------|----------|
A:--3----5--|5--5--5--5|5--5--5--5|5--5--5--5|5--5--5--5|
E:----------|----------|----------|----------|----------|

G:----------|----------|----------|----------|----------|
D:----------|----------|----------|----------|----------|
A:--3----5--|5--5--5--5|5--5--5--5|5--5--5--5|5--5--5--5|
E:----------|----------|----------|----------|----------|
                                                          
G:----------|----------|----------|----------|
D:----------|----------|----------|----------|
A:5--5--5--5|5--5--5--5|5--5--5--5|5--5--5--5|
E:----------|----------|----------|----------|

G:----------|----------|----------|----------|----------|
D:----------|----------|----------|----------|----------|
A:----------|----------|----------|----------|----------|
E:--3----5--|5--5--5--5|5--5--5--5|5--5--5--5|5--5--5--5|

G:----------|----------|----------|----------|----------|
D:----------|----------|----------|----------|----------|
A:--3----5--|5--5--5--5|5--5--5--5|5--5--5--5|5--5--5--5|
E:----------|----------|----------|----------|----------|

G:----------|----------|----------|----------|
D:----------|----------|----------|----------|
A:5--3--0--0|5--3--0--0|5--3--0--0|5--3--0---|
E:----------|----------|----------|---------2|

(Chorus)
G:----------|----------|----------|----------|
D:----------|----------|----------|----------|
A:5--------1|3---------|5--------1|--1----3--|
E:-----3----|----------|-----3----|----------|

G:----------|----------|----------|----------|----------|
D:----------|----------|----------|----------|----------|
A:--3----5--|5--5--5--5|5--5--5--5|5--5--5--5|5--5--5--5|
E:----------|----------|----------|----------|----------|
                                                          
G:----------|----------|----------|----------|
D:----------|----------|----------|----------|
A:5--5--5--5|5--5--5--5|5--5--5--5|5--5--5--5|
E:----------|----------|----------|----------|

G:----------|----------|----------|----------|----------|
D:----------|----------|----------|----------|----------|
A:----------|----------|----------|----------|----------|
E:--3----5--|5--5--5--5|5--5--5--5|5--5--5--5|5--5--5--5|

G:----------|----------|----------|----------|----------|
D:----------|----------|----------|----------|----------|
A:--3----5--|5--5--5--5|5--5--5--5|5--5--5--5|5--5--5--5|
E:----------|----------|----------|----------|----------|

G:----------|----------|----------|----------|----------|
D:----------|----------|----------|----------|----------|
A:--3----5--|5--5--5--5|5--5--5--5|5--5--5--5|5--5--5--5|
E:----------|----------|----------|----------|----------|
                                                          
G:----------|----------|----------|----------|
D:----------|----------|----------|----------|
A:5--5--5--5|5--5--5--5|5--5--5--5|5--5--5--5|
E:----------|----------|----------|----------|

G:----------|----------|----------|----------|----------|
D:----------|----------|----------|----------|----------|
A:----------|----------|----------|----------|----------|
E:--3----5--|5--5--5--5|5--5--5--5|5--5--5--5|5--5--5--5|

G:----------|----------|----------|----------|----------|
D:----------|----------|----------|----------|----------|
A:--3----5--|5--5--5--5|5--5--5--5|5--5--5--5|5--5--5--5|
E:----------|----------|----------|----------|----------|

G:----------|----------|----------|----------|
D:----------|----------|----------|----------|  x7
A:5----3----|3---------|5----3----|--1----3--|
E:---------1|----------|---------1|----------|

Thats it, please rate it after you learn it. 
Tabbed by:
_TheBassist01_
Página 1 / 1

Letras y titulo
Acordes y artista

restablecer los ajustes
OK